MUZBANK



A MOST COMPLETE BANK OF MUSIC INFORMATION

МУЗЫКАЛЬНО-ИНФОРМАЦИОННЫЙ БАНК







    SSystem Of A Down • Aerials (аккорды и текст - chords & lyrics)


    329

    Print

    Видео «Aerials (System Of A Down)»

    Видео клипы к песне подбираются автоматически сайтом youtube. Возможны некоторые несоответствия клипов песне.

    ↑ Спрятать рекламу ↑






     
    
    
    Tuning: D A F C G C
    
    (Guitar)
    
    Solo
    1| ---------------------------------------|  -
    2| ------3------3------3------3------3----|    -
    3| ---2------2------2------2------2----2--|       - 
    4| ---------------------------------------|      -       8 раз
    5| ---------------------------------------|     -
    6| -5------5------5------5------5---------|   -
    
    (Bass)
    
    Solo
    
    1| -----------------------------------------------------------------------------------|
    2| -----------------------------------------------------------------------------------|
    3| -----------------------------------------------------------------------------------|  
    4| --------------------------5------------------------5--7--8--7-5--------------------|
    5| ----8--7--5--5--5-----------8--7--7--7----------8--------------------8--7--5--5--5-|
    6| -0----------------------0---------------------0-------------------0----------------|
    
    1| ---------------------------------------------------------------------------------|
    2| -------------------------------------------------------8-------------------------|
    3| ----7--5----------------9---------------------7--9--10----10-9----7--8--7--7--7--|  
    4| -----------7--7--7---------10--7--7--7-------------------------------------------|
    5| ---------------------------------------------------------------------------------|
    6| -0--------------------0---------------------0-------------------0----------------|
    
    Припев
    1| ------------------------------------------------------------------------------| 
    2| ------------------------------------------------------------------------------|
    3| --------------------------12--------------10---------------9--------------7---| 
    4| -8--8--8--8--8--8--8--8-|--0-0-0-0----------0-0-0-0---------0-0-0-0---------0-0-0-0-------| 
    5| -8--8--8--8--8--8--8--8-|--0-0-0-0----10----0-0-0-0----8----0-0-0-0----7----0-0-0-0---5---|
    6| -8--8--8--8--8--8--8--8-|--0-0-0-0----------0-0-0-0---------0-0-0-0---------0-0-0-0-------|    
    
    Припев
    1| ------------------------------------------------------------------------------| 
    2| ------------------------------------------------------------------------------|
    3| --------------------------12--------------10---------------9--------------7---| 
    4| -8--8--8--8--8--8--8--8-|--0-0-0-0----------0-0-0-0---------0-0-0-0---------0-0-0-0-------| 
    5| -8--8--8--8--8--8--8--8-|--0-0-0-0----10----0-0-0-0----8----0-0-0-0----7----0-0-0-0---5---|
    6| -8--8--8--8--8--8--8--8-|--0-0-0-0----------0-0-0-0---------0-0-0-0---------0-0-0-0-------|    
    
    Припев
    1| ------------------------------------------------------------------------------| 
    2| ------------------------------------------------------------------------------|
    3| --------------------------12--------------10---------------9--------------7---| 
    4| -8--8--8--8--8--8--8--8-|--0-0-0-0----------0-0-0-0---------0-0-0-0---------0-0-0-0-------| 
    5| -8--8--8--8--8--8--8--8-|--0-0-0-0----10----0-0-0-0----8----0-0-0-0----7----0-0-0-0---5---|
    6| -8--8--8--8--8--8--8--8-|--0-0-0-0----------0-0-0-0---------0-0-0-0---------0-0-0-0-------|    
    
    1| ------------------------| 
    2| ------------------------|
    3| ------------------------| 
    4| -8--8--8--8--8--8--8--8-| 
    5| -8--8--8--8--8--8--8--8-|
    6| -8--8--8--8--8--8--8--8-|
    
    Solo - 8 раз
    Припев, но заканчивается вот так
    
    
    1------------------------------------------------------------| 
    2| --------------------------------------------------------10--11-10-11--|
    3| ------------------------------------------9--10---9-10---9--10--9-10--| 
    4| -8--8--8--8--8--8--8--8--7-7-7-7-7-7-7-7--7---7---7--7---7--7---7--7--| 
    5| -8--8--8--8--8--8--8--8--7-7-7-7-7-7-7-7--7---7---7--7---7--7---7--7--|
    6| -8--8--8--8--8--8--8--8--7-7-7-7-7-7-7-7--7---7---7--7---7--7---7--7--|
    
    _________________
    
    1| -----------------------------------------------------------------------------------| 
    2| -----------------------------------------------------------------------------------|
    3| -10---9---7------12---10---9------10---12---14---15---14-12---10---9----7-------| 
    4| -----------------------------------------------------------------------------------| 
    5| -8----7---5------10----8---7------8----10---12---13---12-10----8---7----5-------|
    6| -----------------------------------------------------------------------------------|
    
    1| -----------------------------------------------------------------------------------| 
    2| -----------------------------------------------------------------------------------|
    3| -10---9---7------12---10---9------10---12---14---15---14-12---10---9----7-------| 
    4| -----------------------------------------------------------------------------------| 
    5| -8----7---5------10----8---7------8----10---12---13---12-10----8---7----5-------|
    6| -----------------------------------------------------------------------------------|
    
    1| -----------------------------------------------------------------------------------| 
    2| -----------------------------------------------------------------------------------|
    3| -10---9---7------12---10---9------10---12---14---15---14-12---10---9----7-------| 
    4| -----------------------------------------------------------------------------------| 
    5| -8----7---5------10----8---7------8----10---12---13---12-10----8---7----5-------|
    6| -----------------------------------------------------------------------------------|
    
    1| ---------------------------------------|  -
    2| ------3------3------3------3------3----|    -
    3| ---2------2------2------2------2----2--|       - 
    4| ---------------------------------------|      -       16 раз
    5| ---------------------------------------|     -
    6| -5------5------5------5------5---------|   -
    
    
    Life is a waterfall,
    Weґre one in the river,
    And one again after the fall.
    
    Swimming through the void
    We hear the word,
    We lost ourselves,
    But we find it all?
    
    Cause we are the ones that want to play,
    Always want to go,
    But you never want to stay,
    
    And we are the ones that want to chose,
    Always want to play,
    But you never want to lose.
    
    Aerials, in the sky,
    When you lose small mind,
    You free your life.
    
    Life is a waterfall,
    We drink from the river,
    Then we turn around and put up our walls.
    
    Swimming through the void
    We hear the word,
    We lost ourselves,
    But we find it all?
    
    Cause we are the ones that want to play,
    Always want to go,
    But you never want to stay,
    
    And we are the ones that want to chose,
    Always want to play,
    But you never want to lose.
    
    Aerials, in the sky,
    When you lose small mind,
    You free your life.
    Aerials, so up high,
    When you free your eyes,
    Eternal prize.
    Aerials, in the sky,
    When you lose small mind,
    You free your life.
    Aerials, so up high,
    When you free your eyes,
    Eternal prize.
     

    Тональность:

    Это должно быть в ТОП-листе! - Топ-лист композиций



    Назад
    Рекомендуем посмотреть другие песни исполнителя «System Of A Down»:

    • Комменты Fb ()
    • Комменты ВК



    Добавить в Избранное Браузера
    Сохранить здесь Очистить


    x

    0


    +
    -

    +
    -

    -

    Авторизация





    Зарегистрироваться

    M

    Дата и время

    • 16:01:49
       

    Социальные ссылки


    Наши приложения

    • Muzbank App Play Market
    • Muzbank Amazon App