MUZBANK


МУЗЫКАЛЬНО-ИНФОРМАЦИОННЫЙ БАНК





SSystem Of A Down • Cubert (аккорды и текст - chords & lyrics)


449

Print

Видео «Cubert (System Of A Down)»

Видео клипы к песне подбираются автоматически сайтом youtube. Возможны некоторые несоответствия клипов песне.

↑ Спрятать рекламу ↑






TUNING: Drop C (CGCFAD)

This song is an excellent exercise for pendulum picking...

Opening:
C|-15-15-15-15-15-15-|-15-15-15-15-15-15-|-15-15-15-15-15-15-|-15-15-15-15-|
G|-------------------|-------------------|-------------------|-------------|
C|-------------------|-------------------|-------------------|-------------|PLAY
F|-------------------|-------------------|-------------------|-------------|4x
A|-------------------|-------------------|-------------------|-------------|
D|-------------------|-------------------|-------------------|-------------|

C|-------------|-------------|-------------|-------------|
G|-------------|-------------|-------------|-------------|
C|-------------|-------------|-------------|-------------| PLAY
F|-5-5-5-5-5-5-|-5-5-5-5-5-5-|-5-5-5-5-5-5-|-5-5-5-5-----| 4x
A|-5-5-5-5-5-5-|-5-5-5-5-5-5-|-5-5-5-5-5-5-|-5-5-5-5-----|
D|-5-5-5-5-5-5-|-5-5-5-5-5-5-|-5-5-5-5-5-5-|-5-5-5-5-----|

Verse:
C|-------------|-------------|-------------|-------------|
G|-------------|-------------|-------------|-------------|
C|-3-----------|-1-----------|-------------|-------------|
F|-------4-----|-------3-----|-5-5-5-5-5-5-|-5-5-5-5-----|
A|-------------|-------------|-5-5-5-5-5-5-|-5-5-5-5-----|
D|-------------|-------------|-5-5-5-5-5-5-|-5-5-5-5-----|
“Pre flight day light...”
“I want to be......”

Chorus:
C|-------------|-------------|-------------|-------------|
G|-------------|-------------|-------------|-------------|
C|-------------|-7-----------|-------------|-------------|
F|-5-----------|-7-----------|-7-----------|-8-----------|
A|-5-----------|-5-----------|-7-----------|-8-----------|
D|-5-----------|-------------|-7-----------|-8-----------|
“Pop corn every where

C|-------------|-------------|-------------|-------------|
G|-------------|-------------|-------------|-------------|
C|-------------|-7-----------|-6-----------|-5-----------|
F|-5-----------|-7----8------|-6----7------|-5----6------|
A|-5-----------|-5----8------|-4----7------|-3----6------|
D|-5-----------|------8------|------7------|------6------|
canned cli che peo ple or gans

C|-------------|-------------|-------------|-------------|
G|-------------|-------------|-------------|-------------|
C|-------------|-7-----------|-------------|-------------|
F|-5-----------|-7-----------|-7-----------|-8-----------|
A|-5-----------|-5-----------|-7-----------|-8-----------|
D|-5-----------|-------------|-7-----------|-8-----------|
rare corn every where

C|-------------|-------------|-------------|-------------|
G|-------------|-------------|-------------|-------------|
C|-------------|-7-----------|-6-----------|-5-----------|
F|-5-----------|-7----8------|-6----7------|-5----6------|
A|-5-----------|-5----8------|-4----7------|-3----6------|
D|-5-----------|------8------|------7------|------6------|
canned cli che peo ple can not

C|-------------|-------------|-------------|-------------|
G|-------------|-------------|-------------|-------------|
C|-------------|-------------|-------------|-------------| PLAY
F|-5-5-5-5-5-5-|-5-5-5-5-----|-5-5-5-5-5-5-|-5-5-5-5-----| 2x
A|-5-5-5-5-5-5-|-5-5-5-5-----|-5-5-5-5-5-5-|-5-5-5-5-----|
D|-5-5-5-5-5-5-|-5-5-5-5-----|-5-5-5-5-5-5-|-5-5-5-5-----|
DARE!!!! DARE!!!!

Bridge:
C|-------------|-------------|-------------|-------------|
G|-------------|-------------|-------------|-------------|
C|-------------|-------------|-------------|-------------|
F|-4-----4-----|-4-----4-----|-4-----4-----|-4-----4-----|
A|-4-----4-----|-4-----4-----|-4-----4-----|-4-----4-----|
D|-4-----4-----|-4-----4-----|-4-----4-----|-4-----4-----|
OY! OY!

C|-------------|-------------|-------------|-------------|
G|-------------|-------------|-------------|-------------|
C|-------------|-------------|-------------|-------------|
F|-5-----5-----|-5-----5-----|-5-----5-----|-5-----5-----|
A|-5-----5-----|-5-----5-----|-5-----5-----|-5-----5-----|
D|-5-----5-----|-5-----5-----|-5-----5-----|-5-----5-----|
DARE!!! DARE!!!

Outro:
C|-----------------|      |-----------------|
G|-----------------|      |-----------------|
C|-------------3---| PLAY |-----------------|
F|-5-5-5-5-5-5-----| 3x   |-5-5-5-5-5-5-5---|
A|-5-5-5-5-5-5-----|      |-5-5-5-5-5-5-----|
D|-5-5-5-5-5-5-----|      |-5-5-5-5-5-5-----|
Palm muted.. ............
DARE... DARE....

SONG FLOW:
Opening
Verse (4x)
Chorus
Verse (4x)
Chorus
Bridge (2x)

Тональность:

Это должно быть в ТОП-листе! - Топ-лист композиций



Назад
Рекомендуем посмотреть другие песни исполнителя «System Of A Down»:

  • Комменты Fb ()
  • Комменты ВК



Добавить в Избранное Браузера
Сохранить здесь Очистить


x

0


+
-

+
-

-

Авторизация





Зарегистрироваться

M

Дата и время

  • 14:32:19
     

Социальные ссылки


Наши приложения

  • Muzbank App Play Market
  • Muzbank Amazon App