MUZBANK


МУЗЫКАЛЬНО-ИНФОРМАЦИОННЫЙ БАНК





SSystem Of A Down • Ego Brain (аккорды и текст - chords & lyrics)


1065

Print

Видео «Ego Brain (System Of A Down)»

Видео клипы к песне подбираются автоматически сайтом youtube. Возможны некоторые несоответствия клипов песне.

↑ Спрятать рекламу ↑





[Verse 1] 
Life is but a dream 
Drifting on a stream, a stream 
Consciously it seems 
all of what remains 
Ego Brain!
man made shame, 
shame 
Long after it rains 

[Chorus] 
You see my pain is real 
Watch my world dissolve 
And pretend that none of us see the fall 
As I turn to sand you took me by the hand 
And declared that love prevails over all 

[Verse 2] 
I am just a man fighting other man for land, for land 
While I turn to sand in spite of the pain 
Ego Brain!
man made shame, 
shame 
Long after it rains 

[Chorus] 
You see my pain is real 
Watch my world dissolve 
And pretend that none of us see the fall 
As I turn to sand you took me by the hand 
And declared that love prevails over all 

All of what remains 
Ego Brain!
man made shame, 
shame 
Long after it rains 

[Chorus]  
You see my pain is real 
Watch my world dissolve 
And pretend that none of us see the fall 
As I turn to sand you took me by the hand 
And declared that love prevails over all


Intro

E||-------0h1p0---|-------------|-------0h1p0---|-------------|
B||-----3-------3-|-------------|-----3-------3-|-------------|
G||---2-----------|-----2-----2-|---2-----------|-----2-----2-|
D||-0-------------|---0-----0---|-0-------------|---0-----0---|
A||---------------|-------------|---------------|-------------|
E||---------------|-3-----3-----|---------------|-3-----3-----|

|-------0h1p0---|-----3-------|-------13-------13-|-----1-----3-||
|-----3-------3-|---1-----1---|----10-------10----|---1-----3---||
|---2-----------|-------2---2-|-10-------10-------|-------------||
|-0-------------|-------------|-------------------|-3-----5-----||
|---------------|-3-----------|-------------------|-------------||
|---------------|-------------|-------------------|-------------||


Intro riff

||----------------------------|---------------------------|
||o-------7h8p7---------------|-------7h8p7---------------|
||------9-------9-------------|-----9-------9-------------|
||----9---------------9-----9-|---9---------------9-----9-|
||o-7---------------7-----7---|-7---------------7-----7---|
||----------------7-----7-----|---------------7-----7-----|
| 
|
| Gtr II
|  
||-----------7----------------|----------7----------------|
||o-------8-----9-------------|-------8-----9-------------|
||------9---------------------|-----9---------------------|
||----9---------------9-----9-|---9---------------9-----9-|
||o-7---------------7-----7---|-7---------------7-----7---|
||----------------7-----7-----|---------------7-----7-----|
 
 
 
  Dm            D7sus4          F5                F5       G5
        |-3-|
|----------------------------|--------------------------------------||
|-------7h8p7-------10-------|--------8--------8-------------------o||
|-----9-------9---7------7---|-----7--------7-----------------------||
|---9-----------9------9---9-|--5--------5--------------5--------7--||
|-7--------------------------|-----------------------5--------7----o||
|----------------------------|--------------------5--------7--------||
|                                                    end intro riff-|
|
| 
|----------7-----------------|-------15-------15--------------------||
|-------8-----9-----10-------|----15-------15----------------------o||
|-----9-----------7------7---|-12-------12-------------12-------14--||
|---9-----------9------9---9-|----------------------12-------14-----||
|-7--------------------------|-------------------10-------12-------o||
|----------------------------|--------------------------------------||
                                                     end intro riff-|
 
 
 Gtr IV (plays in second time)
|----------|-------------|----------|----------|
|-12-------|-12-(12)-----|-12-------|----------|
|----------|-------------|----------|-12-------|
|----------|---------14--|----------|----------|
|----------|-------------|----------|----------|
|----------|-------------|----------|----------|
 
 
 
VERSE: 
intro-riff once 
 
 
 
PRE-CHORUS:
 Gtr I
  Dm            G5            Dm            F5   G5
        |-3-|                       |-3-|
|---------------------------|---------------------------|
|-------7h8p7---------------|-------7h8p7---------------|
|-----9-------9-------------|-----9-------9-------------|
|---9---------------9-----9-|---9-----------------------|
|-7---------------7-----7---|-7-------------------------|
|---------------7-----7-----|---------------------------|
|
|Gtr II
| S S S S  S  S S S S S S S   S S S S  S  S Q.
|----------7----------------|----------7------------|
|-------8-----9-------------|-------8-----9---------|
|-----9---------------------|-----9-----------------|
|---9---------------9-----9-|---9-------------------|
|-7---------------7-----7---|-7---------------------|
|---------------7-----7-----|-----------------------|
|
|Gtr III
| 
|---------------------------|-----------------------|
|---------------------------|-----------------------|
|---------------------------|-----------------------|
|---------------------------|-----------------------|
|---------------------------|---------------5---7---|
|---------------------------|---------------5---7---|
 
 
  Eb5               D5                Eb5     F5 Eb5    D5
 Gtr III
|-----------------|-----------------|-----------------|-----------------|
|-----------------|-----------------|-----------------|-----------------|
|-----------------|-----------------|-----------------|-----------------|
|-----------------|-----------------|-----------------|-----------------|
|-3---3---3---3---|-2---2---2---2---|-3---3---5---3---|-2---2---2---2---|
|-3---3---3---3---|-2---2---2---2---|-3---3---5---3---|-2---2---2---2---|
 
 
 
Chorus:
    Dm                    Dm
  Gtr III
||----------------------|---------------------|
||o---------------------|---------------------|
||----------------------|---------------------|
||------2b3r2-----------|-----2b3r2-----------|
||o-2---------3---2b3r2-|-2---------3---2b3r2-|
||--2-------------------|-2-------------------|
 
 
  Eb                            Dm
            |-3-|
|-----------------------------|----------------------||
|-----------------------------|---------------------o||
|-----------------------------|----------------------||
|-----3-5-3-5/7\5-3-5-3h5p3\2-|-----2b3r2------------||
|-3---------------------------|-2---------3---2b3r2-o||
|-3---------------------------|-2--------------------||
 
 
 

 
 
Interlude: 
intro-riff twice + this part: 
 
 Gtr IV
     E.   E. E. E.    Q.  E.  E.    E.   E. E. E.
||-----------------|-------------|----------------|
||o----------------|-------------|----------------|
||--12\9-12--9-----|-12--14------|-12\9-12--9-----|
||--------------9--|---------14--|-------------9--|
||o----------------|-------------|----------------|
||-----------------|-------------|----------------|
 
  1.               2.
   H  +S    E.      H  +S    E.
 |---------------||---------------||
 |--------------o||--------------o||
 |-12-(12)--14---||---------------||
 |---------------||---------------||
 |--------------o||-10-(10)--12--o||
 |---------------||---------------||
 
 
 
Pre-chorus end:
 
 Gtr IV

|----------|
|----------| *fades
|----------|  out 
|-14-------|  
|----------|  
|----------|
 
 
 
CHORUS 
 
 
 
OUTRO:
  Dm            G5            Dm            G5
 Gtr I
        |-3-|                       |-3-|
|---------------------------|---------------------------|
|-------7h8p7---------------|-------7h8p7---------------|
|-----9-------9-------------|-----9-------9-------------|
|---9---------------9-----9-|---9---------------9-----9-|
|-7---------------7-----7---|-7---------------7-----7---|
|---------------7-----7-----|---------------7-----7-----|
|
|Gtr II
| 
|----------7----------------|----------7----------------|
|-------8-----9-------------|-------8-----9-------------|
|-----9---------------------|-----9---------------------|
|---9---------------9-----9-|---9---------------9-----9-|
|-7---------------7-----7---|-7---------------7-----7---|
|---------------7-----7-----|---------------7-----7-----|
 
 
  Dm            D7sus4          F5             F5    G5       Dm
        |-3-|
|----------------------------|------------------------------|---------|
|-------7h8p7-------10-------|-------8-------8--------------|-8-------|
|-----9-------9---7------7---|----7--------7----------------|-9-------|
|---9-----------9------9---9-|--5-------5----------5------7-|-9-------|
|-7--------------------------|-------------------5-----7----|-7-------|
|----------------------------|-----------------5-----7------|---------|
|
|
|----------7-----------------|---------10-------------------|---------|
|-------8-----9-----10-------|------10----10-------8-----10-|-8-------|
|-----9-----------7------7---|----7----------9---7-----9----|-9-------|
|---9-----------9------9---9-|--9--------------5-----7------|-9-------|
|-7--------------------------|------------------------------|-7-------|
|----------------------------|------------------------------|---------|




Тональность:

Это должно быть в ТОП-листе! - Топ-лист композиций



Назад
Рекомендуем посмотреть другие песни исполнителя «System Of A Down»:

  • Комменты Fb ()
  • Комменты ВК



Добавить в Избранное Браузера
Сохранить здесь Очистить


x

0


+
-

+
-

-

Авторизация





Зарегистрироваться

M

Дата и время

  • 23:21:53
     

Социальные ссылки


Наши приложения

  • Muzbank App Play Market
  • Muzbank Amazon App