MUZBANK



A MOST COMPLETE BANK OF MUSIC INFORMATION

МУЗЫКАЛЬНО-ИНФОРМАЦИОННЫЙ БАНК







    SSystem Of A Down • Forest (аккорды и текст - chords & lyrics)


    231

    Print

    Видео «Forest (System Of A Down)»

    Видео клипы к песне подбираются автоматически сайтом youtube. Возможны некоторые несоответствия клипов песне.

    ↑ Спрятать рекламу ↑






     
    
    
    band:SyStEm Of A dOwN
    song:forests
    tabbed by:Ugman2000
                          
    Intro                         
       
    G----------------------------------------------------|
    D----------------------------------------------------|
    A-55555-66666-77777-88888-55555-66666-77777-88888----|
    D----------------------------------------------------|
    
    (0:14)
    G-------------------------------------------|
    D-------------------------------------------|
    A-------------------------------------------|
    D-00-6/4-00-6/4-00-6/4-00-6/4-00-6/4-00-6/4-|
    
    (0:20)
    G-------------------------------------------------|
    D-------------------------------------------------|
    A-------------------------------------------------|
    D-0-64-0-64-0-64-0-64-0-64-0-64-0-64-0-64-|
    
    (0:26)  (0:32) (0:38) (0:45)
    G------|------|------|--------------------|
    D------|------|------|--------------------|
    A-5~-6~|-6~-7~|-5~-6~|-5~-6~-7~-8~-5~-6~-7|
    D------|------|------|--------------------|
    
    (0:29)(0:35)(0:42)
    G------------------------|
    D------------------------|
    A------------------------|
    D-0-64-0-64-0-64-0-64|
    
    (0:57)
    G---------------------|   X5
    D---------------------|
    A-------=-------------|
    D-8-10-8-7-5-3-7~-8-5~|
    
    (1:23)
    G-------------------------------------------------|
    D-------------------------------------------------|
    A-------------------------------------------------|
    D-0-64-0-64-0-64-0-64-0-64-0-64-0-64-0-64-|
    
    (1:28)  (1:36) (1:42) (1:49)
    G------|------|------|--------------------|
    D------|------|------|--------------------|
    A-5~-6~|-6~-7~|-5~-6~|-5~-6~-7~-8~-5~-6~-7|
    D------|------|------|--------------------|
    
    (1:32)(1:39)(1:45)
    G------------------------|
    D------------------------|
    A------------------------|
    D-0-64-0-64-0-64-0-64|
    
    (2:00) X5
    G---------------------|  
    D---------------------|
    A---------------------|
    D-8-10-8-7-5-3-7~-8-5~|
    
    (2:25)                          (2:35)
    G------------------------------|-------------------|
    D------------------------------|-------------------|
    A------------------------------|----------66666-4-3|
    D-88888-6-5-88888-6-5-88888-6-5|-88888-6-5---------|
    
    (2:32) X2
    G------------------------|
    D------------------------| 
    A------------------------|
    D-0-64-0-64-0-64-0-64|
    
    (2:39) (2:46)
    G------------------------|
    D------------------------| 
    A------------------------|
    D-0-64-0-64-0-64-0-64|
    
    (2:41)
    G-----------------------------|
    D--------------------66666-4-3|
    A-66666-4-3-88888-6-5---------|
    D-----------------------------|
    
    (2:49)
    G---------------------------------------|
    D--------------------66666-4-3-88888-6-5|
    A-66666-4-3-88888-6-5-------------------|
    D---------------------------------------|
    
    (2:55)
    G---------------------------------------|
    D---------------------------------------|
    A---------------------------------------|
    D-0-6-00-4--0-6-00-4--0-6-00-4--0-6-00-4|
    
    (3:01) X2
    G----------------------------------------------------|
    D----------------------------------------------------| 
    A-55555-66666-77777-88888-55555-66666-77777-88888----|
    D----------------------------------------------------|
    
    (3:25) X4               then play this
    G---------------------|----------------|  
    D---------------------|----------------|
    A---------------------|----------------|
    D-8-10-8-7-5-3-7~-8-5~|-8-10-8-7-5-3-0~|
    
    not much to say here but please rate this and enjoy this tab
     

    Тональность:

    Это должно быть в ТОП-листе! - Топ-лист композиций



    Назад
    Рекомендуем посмотреть другие песни исполнителя «System Of A Down»:

    • Комменты Fb ()
    • Комменты ВК



    Добавить в Избранное Браузера
    Сохранить здесь Очистить


    x

    0


    +
    -

    +
    -

    -

    Авторизация





    Зарегистрироваться

    M

    Дата и время

    • 19:24:40
       

    Социальные ссылки


    Наши приложения

    • Muzbank App Play Market
    • Muzbank Amazon App