MUZBANK


МУЗЫКАЛЬНО-ИНФОРМАЦИОННЫЙ БАНК





SSystem Of A Down • Fuck The System (аккорды и текст - chords & lyrics)


534

Print

Видео «Fuck The System (System Of A Down)»

Видео клипы к песне подбираются автоматически сайтом youtube. Возможны некоторые несоответствия клипов песне.

↑ Спрятать рекламу ↑






E|-------------------10-8-|-----------------10-8-|
B|-------------10-8-------|-----------10-8-------|
G|-------10-8-------------|-10--10-8-------------|
D|-10-8-------------------|----------------------|
A|------------------------|----------------------|
E|------------------------|----------------------|

E|-------------------10-8-|-------------10-8-8-10-|
B|-------------10-8-------|-----------------------|
G|-------10-8-------------|-------10-8------------|
D|-10-8-------------------|-10-8------------------|
A|------------------------|-----------------------|
E|------------------------|-----------------------|

B
E|---------------------------------|
B|---------------------------------|
G|---------------------------------|
D|-0-2-3-2-0-2-3-2-0-2-3-2-0-2-3-2-|
A|-0-2-3-2-0-2-3-2-0-2-3-2-0-2-3-2-|
E|-0-2-3-2-0-2-3-2-0-2-3-2-0-2-3-2-|

B'
pm................................
E|---------------------------------|
B|---------------------------------|
G|---------------------------------|
D|-0-2-3-2-0-2-3-2-0-2-3-2-0-2-3-2-|
A|-0-2-3-2-0-2-3-2-0-2-3-2-0-2-3-2-|
E|-0-2-3-2-0-2-3-2-0-2-3-2-0-2-3-2-|

C
E|----------------------------------10-8-10-8-|
B|-----------------------10-8-10-8------------|
G|------------10-8-10-8-----------------------|
D|-10-8-10-8----------------------------------|
A|--------------------------------------------|
E|--------------------------------------------|

D(artificial harmonic in the middle from Bridge to middle)
3x: 1x: 3x: 1x:
E|----------------------------|-----------------|
B|----------------------------|-----------------|
G|----------------------------|-----------------|
D|----------------------------|-----------------|
A|-3-3-1--3-3-1--3-3-1--3-3-1-|-ah3-ah3-ah3-ah3-|
E|----------------------------|-----------------|

E|----------------------------|-----------------|
B|----------------------------|-----------------|
G|----------------------------|-----------------|
D|----------------------------|-----------------|
A|-3-3-1--3-3-1--3-3-1--3-3-1-|-ah3-ah3-ah3-ah3-|
E|----------------------------|-----------------|

4x: 4x:
E|--------------------|----------------------------|
B|--------------------|----------------------------|
G|--------------------|----------------------------|
D|--------------------|----------------------------|
A|-3-1--3-1--3-1--3-1-|-3-3-1--3-3-1--3-3-1--3-3-1-|
E|--------------------|----------------------------|

E
E|---------------|--------------------|---------------|----------------------|
B|---------------|--------------------|---------------|----------------------|
G|---------------|--------------------|---------------|----------------------|
D|-0-2-3-0--8--8-|-0-2-3-0--10-8-10-8-|-0-2-3-0--8--8-|-10-8-10-8--10-8-10-8-|
A|-0-2-3-0--8--8-|-0-2-3-0--10-8-10-8-|-0-2-3-0--8--8-|-10-8-10-8--10-8-10-8-|
E|-0-2-3-0--8--8-|-0-2-3-0--10-8-10-8-|-0-2-3-0--8--8-|-10-8-10-8--10-8-10-8-|

E|---------------|--------------------|---------------|
B|---------------|--------------------|---------------|
G|---------------|--------------------|---------------|
D|-0-2-3-0--8--8-|-0-2-3-0--10-8-10-8-|-0-2-3-0--8--8-|
A|-0-2-3-0--8--8-|-0-2-3-0--10-8-10-8-|-0-2-3-0--8--8-|
E|-0-2-3-0--8--8-|-0-2-3-0--10-8-10-8-|-0-2-3-0--8--8-|

F
E|----------------------------10-10-8-|
B|-------------------10-10-8----------|
G|----------10-10-8-------------------|
D|-10-10-8----------------------------|
A|------------------------------------|
E|------------------------------------|

G
E|----------------------------|----------------------|----------------------|
B|----------------------------|----------------------|------------10-8-10-8-|
G|----------------------------|------------10-8-10-8-|----------------------|
D|-10-8-10-8--10-10-8-10-10-8-|-10-8-10-8------------|-10-8-10-8------------|
A|-10-8-10-8------------------|-10-8-10-8------------|-10-8-10-8------------|
E|-10-8-10-8------------------|-10-8-10-8------------|-10-8-10-8------------|

E|------------10-8-10-8-|----------------------------|
B|----------------------|----------------------------|
G|----------------------|----------------------------|
D|-10-8-10-8------------|-10-8-10-8--10-10-8-10-10-8-|
A|-10-8-10-8------------|-10-8-10-8------------------|
E|-10-8-10-8------------|-10-8-10-8------------------|

E|----------------------------|
B|----------------------------|
G|------------10-10-8-10-10-8-|
D|-10-8-10-8------------------|
A|-10-8-10-8------------------|
E|-10-8-10-8------------------|

E|----------------------|----------------------------|----------------------|
B|----------------------|----------------------------|------------10-8-10-8-|
G|----------------------|------------10-10-8-10-10-8-|----------------------|
D|-10-8-10-8--10-8-10-8-|-10-8-10-8------------------|-10-8-10-8------------|
A|-10-8-10-8------------|-10-8-10-8------------------|-10-8-10-8------------|
E|-10-8-10-8------------|-10-8-10-8------------------|-10-8-10-8------------|

E|------------10-10-8-10-10-8-|----------------------------|
B|----------------------------|----------------------------|
G|----------------------------|----------------------------|
D|-10-8-10-8------------------|-10-8-10-8--10-10-8-10-10-8-|
A|-10-8-10-8------------------|-10-8-10-8------------------|
E|-10-8-10-8------------------|-10-8-10-8------------------|

E|----------------------|
B|----------------------|
G|------------10-8-10-8-|
D|-10-8-10-8------------|
A|-10-8-10-8------------|
E|-10-8-10-8------------|

E|----------------------------|------------10-8-10-8-|
B|------------10-10-8-10-10-8-|----------------------|
G|----------------------------|----------------------|
D|-10-8-10-8------------------|-10-8-10-8------------|
A|-10-8-10-8------------------|-10-8-10-8------------|
E|-10-8-10-8------------------|-10-8-10-8------------|

H
3x: 1x:(artificial harmonic in the middle from Bridge to middle)
E|----------------------------|-----------------|
B|----------------------------|-----------------|
G|----------------------------|-----------------|
D|----------------------------|-----------------|
A|-3-3-1--3-3-1--3-3-1--3-3-1-|-ah3-ah3-ah3-ah3-|
E|----------------------------|-----------------|

ORDER:
=====

A
B 2x
B'2x
C
D
E
B 2x
F 2x
D
E
B 2x
F 2x
G
H
B 4x


Тональность:

Это должно быть в ТОП-листе! - Топ-лист композиций



Назад
Рекомендуем посмотреть другие песни исполнителя «System Of A Down»:

  • Комменты Fb ()
  • Комменты ВК



Добавить в Избранное Браузера
Сохранить здесь Очистить


x

0


+
-

+
-

-

Авторизация





Зарегистрироваться

M

Дата и время

  • 09:50:50
     

Социальные ссылки


Наши приложения

  • Muzbank App Play Market
  • Muzbank Amazon App