MUZBANK


МУЗЫКАЛЬНО-ИНФОРМАЦИОННЫЙ БАНК





SSystem Of A Down • Lonely Day (аккорды и текст - chords & lyrics)


763

Print

Видео «Lonely Day (System Of A Down)»

Видео клипы к песне подбираются автоматически сайтом youtube. Возможны некоторые несоответствия клипов песне.

↑ Спрятать рекламу ↑





Am          Dm6/F        C            E7
|------------------------------------------------------|
|-------1-----------0------------1------------0--------|
|-----2---2-------2---2--------0---0--------1---1------|
|---2-------0---0-------2----2-------0----0-------0----|
|-0------------------------3---------------------------|
|-------------1-------------------------0--------------|



[Verse]

Am       Dm6/F      C        E7
  Such a lonely day, and its mine
Am         F                   C  E7
  The most loneliest day of my li-ife
Am       Dm6/F      C          E7
  Such a lonely day, should be banned
Am      F                C   E7
  Its a day that I can′t sta-and

[Chorus]

Am         F                   C  E
  The most loneliest day of my li-ife
Am         F                   C  E
  The most loneliest day of my li-ife

[Verse]

Am       Dm6/F      C           E7
  Such a lonely day, shouldn′t exist
Am       F                   C  E7
  It′s a day that i′ll never mi-iss
Am       Dm6/F      C        E7
  Such a lonely day, and its mine
Am         F                   C  E7
  The most loneliest day of my li-ife

[Bridge]

F            E  G        Am
  And if you go, I wanna Go with you
F            E   G5       Am
  And if you die, I wanna die with you
F         E
Take your hand and walk away

[Chorus]

Am         F                   C  E
  The most loneliest day of my li-ife
Am         F                   C  E
  The most loneliest day of my li-ife
Am         F                   C  E
  The most loneliest day of my li-ife

[Outro]

Am       Dm6/F      C        E7
  Such a lonely day, and its mine
Am      F                       C E7   (Am)
  Its a day that I′m glad I survi-ived




D#|-------------------------------------------------------------------------|
A#|------1-----------0------------1------------0----------------------------|
F#|----2---2-------2---2--------0---0--------1---1--------------------------|
C#|--2-------0---2-------2----2-------2----0-------0------------------------|
G#|0------------------------3-----------------------------------------------|
C#|------------3-------------------------2----------------------------------|


D#|-------------------------------------------------------------------------|
A#|-------------------------------------------------------------------------|
F#|-2--2-2-2--------------5--5-5-5------------------------------------------|
C#|-2--2-2-2---3--3-3-3---5--5-5-5---2--2-2-2-------------------------------|
G#|-0--0-0-0---3--3-3-3---3--3-3-3---2--2-2-2-------------------------------|
C#|------------3--3-3-3--------------2--2-2-2-------------------------------|


D#|-------------------------------------------------------------------------|
A#|------1-----------0------------1------------0----------------------------|
F#|----2---2-------2---2--------0---0--------1---1--------------------------|
C#|--2-------0---2-------2----2-------2----0-------0------------------------|
G#|0------------------------3-----------------------------------------------|
C#|------------3-------------------------2----------------------------------|


D#|--12----12--------------17-17-16v----------------------------------------|
A#|-----13----13-13/15------------------------------------------------------|
F#|-------------------------------------------------------------------------|
C#|-------------------------------------------------------------------------|
G#|-------------------------------------------------------------------------|
C#|-------------------------------------------------------------------------|


D#|-------------------------------------------------------------------------|
A#|-------------------------------------------------------------------------|
F#|-------------------------------------------------------------------------|
C#|-3--3-3-3---2--2-2-2---5--5-5-5---7--7-7-7-----x2------------------------|
G#|-3--3-3-3---2--2-2-2---5--5-5-5---7--7-7-7-------------------------------|
C#|-3--3-3-3---2--2-2-2---5--5-5-5---7--7-7-7-------------------------------|


D#|--------------------12---12-10-8--7--8--7----8--7---10-------------------|
A#|--------------------13---13-12-10-8--10-8----10-8-9-12-------------------|
F#|--------------------------------------------------9----------------------|
C#|3-x12--2-x12-------------------------------------------------------------|
G#|3------2-----------------------------------------------------------------|
C#|3------2-----------------------------------------------------------------|
  .pm    .pm

D#|-----------10------------12------------13------------15------------------|
A#|--13\12/13-12---13\12/13-13---13\12/13-15---13\12/13-17------------------|
F#|--14\13/14------14\13/14------14\13/14------14\13/14---------------------|
C#|-------------------------------------------------------------------------|
G#|-------------------------------------------------------------------------|
C#|-------------------------------------------------------------------------|


D#|--17-15-13-15-13-12-13-12-10-12-10-8-------------19--| 
A#|--18-17-15-17-15-13-15-13-12-13-12-10--10v-------20--|
F#|-----------------------------------------------------|
C#|-----------------------------------------------------|
G#|-----------------------------------------------------|
C#|-----------------------------------------------------|


D#|-------------------------------------------------------------------------|
A#|-------------------------------------------------------------------------|
F#|-2--2-2-2--------------5--5-5-5------------------------------------------|
C#|-2--2-2-2---3--3-3-3---5--5-5-5---2--2-2-2-------------------------------|
G#|-0--0-0-0---3--3-3-3---3--3-3-3---2--2-2-2-------------------------------|
C#|------------3--3-3-3--------------2--2-2-2-------------------------------|


D#|-------------------------------------------------------------------------|
A#|------1-----------0------------1------------0----------------------------|
F#|----2---2-------2---2--------0---0--------1---1--------------------------|
C#|--2-------0---2-------2----2-------2----0-------0------------------------|
G#|0------------------------3-----------------------------------------------|
C#|------------3-------------------------2----------------------------------|


D#|-------------------------------------------------------------------------|
A#|-------------10----------------------------------------------------------|
F#|---10--9-----------------------------------------------------------------|
C#|-------------------------------------------------------------------------|
G#|-----7---7---------------------------------------------------------------|
C#|-------------------------------------------------------------------------|

Тональность:

Это должно быть в ТОП-листе! - Топ-лист композиций



Назад
Рекомендуем посмотреть другие песни исполнителя «System Of A Down»:

  • Комменты Fb ()
  • Комменты ВК



Добавить в Избранное Браузера
Сохранить здесь Очистить


x

0


+
-

+
-

-

Авторизация





Зарегистрироваться

M

Дата и время

  • 06:14:27
     

Социальные ссылки


Наши приложения

  • Muzbank App Play Market
  • Muzbank Amazon App