MUZBANK


МУЗЫКАЛЬНО-ИНФОРМАЦИОННЫЙ БАНК





SSystem Of A Down • Metro (аккорды и текст - chords & lyrics)


761

Print

Видео «Metro (System Of A Down)»

Видео клипы к песне подбираются автоматически сайтом youtube. Возможны некоторые несоответствия клипов песне.

↑ Спрятать рекламу ↑






Dropped D tuning one and a half steps down low to high:
B,F#,B,E,G#,C#
Here's go nothin'

Beat starts out, he starts by muting everything. And start with an up stroke.
^ V ^ V ^ V V ^ V ^ V ^ V ^
E|-x-x-x-x-x-x-----------x-x-x-x-x-x-x-------x(----|
B|-x-x-x-x-x-x-----------x-x-x-x-x-x-x-------x(----|
G|-x-x-x-x-x-x-----------x-x-x-x-x-x-x-------x)-x--|
D|-x-x-x-x-x-x-----------x-x-x-x-x-x-x-------x(----|
A|-x-x-x-x-x-x-----------x-x-x-x-x-x-x-------x)--x-|
E|-x-x-x-x-x-x-----------x-x-x-x-x-x-x-------x(----|

E|-12--12--12--12-12-12-12-12-12-12-12-12-12-12-12--12-12-12--x-x-x-x-x-x-x-x-|
B|------------------------------------------------------------x-x-x-x-x-x-x-x-|
G|------------------------------------------------------------x-x-x-x-x-x-x-x-|
D|----------------------------------------------------------------------------|
A|----------------------------------------------------------------------------|
E|----------------------------------------------------------------------------|

bass guit. comes in
E|-12--12--12--12-12-12--12-12-12----12--12--12--12-12-12--12-12-12-|
B|------------------------------------------------------------------|
G|------------------------------------------------------------------|
D|------------------------------------------------------------------|
A|------------------------------------------------------------------|
E|------------------------------------------------------------------|
vib. trem. pick-|
E|----------------------------------------------------------------------|
B|-15-----11-----10-----8--------15-----11-11-----10-----8--------------|
G|----14-----12-----10----9--7------14--------12-----10----9--7(SB 1/4)-|
D|----------------------------------------------------------------------|
A|----------------------------------------------------------------------|
E|----------------------------------------------------------------------|

verse1 no guit. just bass
I'm here, sitting on my broken glass....
These four walls follow me along my path...

chorus heavy dist.
E|----------------------------------------------------------------------------|
B|----------------------------------------------------------------------------|
G|----------------------------------------------------------------------------|
D|-10--10--10-10-10--12--12-12--12-12-12---8--8--8-8-8---15---15-15--15-15-15-|
A|-10--10--10-10-10--12--12-12--12-12-12---8--8--8-8-8---15---15-15--15-15-15-|
E|-10--10--10-10-10--12--12-12--12-12-12---8--8--8-8-8---15---15-15--15-15-15-|
bridge1
E|-----------------------------------------|--------------------|
B|-----------------------------------------|--------------------|
G|-----------------------------------------|--------------------|
D|-10--10--10-10-10--12--12-12--12-12-12---|8---8---8---8---8-8-|
A|-10--10--10-10-10--12--12-12--12-12-12---|8---8---8---8---8-8-|
E|-10--10--10-10-10--12--12-12--12-12-12---|8---8---8---8---8-8-|

bridge2
P.M.--------------------------| P.M.--------------------------|
E|-----------------------------------------------------------------|
B|-----------------------------------------------------------------|
G|-----------------------------------------------------------------|
D|-0---7---3---5---10-10--0--8-7---0---7---3---5---10-10--0--8-7---|
A|-0---7---3---5---10-10--0--8-7---0---7---3---5---10-10--0--8-7---|
E|-0---7---3---5---10-10--0--8-7---0---7---3---5---10-10--0--8-7---|

P.M.---------------------------------------------------------------------|
E|--------------------------------------------------------------------------|
B|--------------------------------------------------------------------------|
G|--------------------------------------------------------------------------|
D|-0---7---3---5---10-10--0--8-7---0-0--7-7--3-3--5-5--10-10--0-0--8-8--7-7-|
A|-0---7---3---5---10-10--0--8-7---0-0--7-7--3-3--5-5--10-10--0-0--8-8--7-7-|
E|-0---7---3---5---10-10--0--8-7---0-0--7-7--3-3--5-5--10-10--0-0--8-8--7-7-|

verse2 up stroke ska'ish
E|-------|That's all he does for the second verse,
B|-15----|30 times +3 at the end of the verse.
G|-14----|
D|-------|
A|-------|
E|-------|

repeat chorus and bridge1 twice.
after second rep. play bridge 1 7 times.
then go to solo.
solo
E|-------------------------------------------------12-------------------|
B|-15-----11-------11---15-----11-------11---15-------11----------------|
G|----14-----12--14--------14-----12--14-------14-------12--14--12---14-|
D|----------------------------------------------------------------------|
A|----------------------------------------------------------------------|
E|----------------------------------------------------------------------|

E|----------------------------------------------12----------|
B|-15~~---11------11--15~~---11------11--15~~-----11--------|
G|----14~~--12--14-------14~~--12--14-------14~~----12--14--|
D|----------------------------------------------------------|
A|----------------------------------------------------------|
E|----------------------------------------------------------|

E|-10-9-8-7--10-10-9-9-8-8-7-7-|
B|-----------------------------|
G|-----------------------------|
D|-----------------------------|
A|-----------------------------|
E|-----------------------------|

repeat chorus and bridge1 twice,
after second rep.
outro
E|----------------------------------------------------------------------------|
B|----------------------------------------------------------------------------|
G|----------------------------------------------------------------------------|
D|-0-0-7-7-3-3-5-5-10-10-0-0-8-8-7-7-0-0-7-7--3-3--5-5--10-10--0-0--8-8--7-7--|
A|-0-0-7-7-3-3-5-5-10-10-0-0-8-8-7-7-0-0-7-7--3-3--5-5--10-10--0-0--8-8--7-7--|
E|-0-0-7-7-3-3-5-5-10-10-0-0-8-8-7-7-0-0-7-7--3-3--5-5--10-10--0-0--8-8--7-7--|

E|-----------------------------------------------------------------------------|
B|-----------------------------------------------------------------------------|
G|-----------------------------------------------------------------------------|
D|-0-0-7-7-3-3-5-5-10-10-0-0-8-8--7-7---0-0--7-7--3-3--5-5--10-10--0-0--8-8--7-|
A|-0-0-7-7-3-3-5-5-10-10-0-0-8-8--7-7---0-0--7-7--3-3--5-5--10-10--0-0--8-8--7-|
E|-0-0-7-7-3-3-5-5-10-10-0-0-8-8--7-7---0-0--7-7--3-3--5-5--10-10--0-0--8-8--7-|

Тональность:

Это должно быть в ТОП-листе! - Топ-лист композиций



Назад
Рекомендуем посмотреть другие песни исполнителя «System Of A Down»:

  • Комменты Fb ()
  • Комменты ВК



Добавить в Избранное Браузера
Сохранить здесь Очистить


x

0


+
-

+
-

-

Авторизация





Зарегистрироваться

M

Дата и время

  • 10:30:27
     

Социальные ссылки


Наши приложения

  • Muzbank App Play Market
  • Muzbank Amazon App