MUZBANK



A MOST COMPLETE BANK OF MUSIC INFORMATION

МУЗЫКАЛЬНО-ИНФОРМАЦИОННЫЙ БАНК







    SSystem Of A Down • Metro (аккорды и текст - chords & lyrics)


    259

    Print

    Видео «Metro (System Of A Down)»

    Видео клипы к песне подбираются автоматически сайтом youtube. Возможны некоторые несоответствия клипов песне.

    ↑ Спрятать рекламу ↑






     
    
    
    Song: Metro
    Band: S.O.A.D
    Album: Toxic Traxx
    
       Tuning: D
               A
               F
               C
               G
               C
     
     
     D---12-12-12-12-12-12-12-12-12----|
     A---------------------------------|
     F---------------------------------|
     C---------------------------------|
     G---------------------------------|
     C---------------------------------|
    
    
     D---------------------------------|
     A---12----------------------------|
     F-----11-12-9-11----9-------------|
     C----------------12---11--9-------|
     G---------------------------------|
     C---------------------------------|
    
    
     D---------------------------------|
     A---12----------------------------| 
     F-----11-12-12-9-11----9----------|
     C-------------------12---11--9----|
     G---------------------------------|
     C---------------------------------|
     

    Тональность:

    Это должно быть в ТОП-листе! - Топ-лист композиций



    Назад
    Рекомендуем посмотреть другие песни исполнителя «System Of A Down»:

    • Комменты Fb ()
    • Комменты ВК



    Добавить в Избранное Браузера
    Сохранить здесь Очистить


    x

    0


    +
    -

    +
    -

    -

    Авторизация





    Зарегистрироваться

    M

    Дата и время

    • 14:29:47
       

    Социальные ссылки


    Наши приложения

    • Muzbank App Play Market
    • Muzbank Amazon App