MUZBANK


МУЗЫКАЛЬНО-ИНФОРМАЦИОННЫЙ БАНК





SSystem Of A Down • Mind (аккорды и текст - chords & lyrics)


343

Print

Видео «Mind (System Of A Down)»

Видео клипы к песне подбираются автоматически сайтом youtube. Возможны некоторые несоответствия клипов песне.

↑ Спрятать рекламу ↑





Tuning: CGCFAD

|---------| |-----| |--------------------------------------------|
|---8--7v-| x2 |---8-| |---7-8-10-----7-8-10-8-7--------8-7v--------| x2
|-5----5v-| |-5---| |-7----------7-------------7-5----------7-5v-|
|---------| |-----| |--------------------------------------------|
|---------| |-----| |--------------------------------------------|
|---------| |-----| |--------------------------------------------|

|----------| |---------------| |---------|
|---8---7v-| x2 |---8---7v------| x2 |-8---7---| x35
|-5---5-5v-| |-5---5-5v--7-5-| |---5---5-|
|----------| |---------------| |---------|
|----------| |---------------| |---------|
|----------| |---------------| |---------|

|-------| |-----|
|-------| x3 |-----|
|-------| |-----|
|-0-0-0-| |-0-0-|
|-0-0-0-| |-0-0-|
|-0-0-0-| |-0-0-|

|-------------------------------------------|
|-------------------------------------------| x2
|-------------------------------------------|
|-0---1-3---0---3-2-1-1-0---1-3---0---3-2-1-|
|-0---1-3---0---3-2-1-1-0---1-3---0---3-2-1-|
|-0---1-3---0---3-2-1-1-0---1-3---0---3-2-1-|

|---------| |---------| |---------| |-------------| |--------|
|-----12v-| x3 |-----12*-| |-----12v-| x2 |------15-----| x2 |-15-----| x3
|-12v-----| |-12v-----| |-12v-----| |-16v-----16v-| |----16v-|
|---------| |---------| |---------| |-------------| |--------|
|---------| |---------| |---------| |-------------| |--------|
|---------| |---------| |---------| |-------------| |--------|

|-------------------------------------------|
|-------------------------------------------| x4
|-------------------------------------------|
|-0---1-3---0---3-2-1-1-0---1-3---0---3-2-1-|
|-0---1-3---0---3-2-1-1-0---1-3---0---3-2-1-|
|-0---1-3---0---3-2-1-1-0---1-3---0---3-2-1-|

|---------------------| |---|
|---------------------| x4 |---|
|---------------------| |---|
|-0-0-0-0-0-0-0-0-6-6-| |-6-|
|-0-0-0-0-0-0-0-0-6-6-| |-6-|
|-0-0-0-0-0-0-0-0-6-6-| |-6-|

|-----------------------------|
|-----------------------------| x4
|-----------------------------|
|-7-x-6-7-x-6-7-7-7-x-6-7-x-6-|
|-7-x-6-7-x-6-7-7-7-x-6-7-x-6-|
|-7-x-6-7-x-6-7-7-7-x-6-7-x-6-|

|-------| |-----|
|-------| x3 |-----|
|-------| |-----|
|-0-0-0-| |-0-0-|
|-0-0-0-| |-0-0-|
|-0-0-0-| |-0-0-|

|-------------------------------------------|
|-------------------------------------------| x2
|-------------------------------------------|
|-0---1-3---0---3-2-1-1-0---1-3---0---3-2-1-|
|-0---1-3---0---3-2-1-1-0---1-3---0---3-2-1-|
|-0---1-3---0---3-2-1-1-0---1-3---0---3-2-1-|


|-------------|  |----------||-------------------||-------|  |-------------|
|-------12-12-|x3|-------12-||-------12-12-------||-12----|x6|-12p10h12p10-| x8
|-12-12-------|  |-12-12----||-12-12-------12-12-||----14-|  |-------------|
|-------------|  |----------||-------------------||-------|  |-------------|
|-------------|  |----------||-------------------||-------|  |-------------|
|-------------|  |----------||-------------------||-------|  |-------------|

|-------------------------------------------|
|-------------------------------------------| x4
|-------------------------------------------|
|-0---1-3---0---3-2-1-1-0---1-3---0---3-2-1-|
|-0---1-3---0---3-2-1-1-0---1-3---0---3-2-1-|
|-0---1-3---0---3-2-1-1-0---1-3---0---3-2-1-|

|---------------------| |---|
|---------------------| x4 |---|
|---------------------| |---|
|-0-0-0-0-0-0-0-0-6-6-| |-6-|
|-0-0-0-0-0-0-0-0-6-6-| |-6-|
|-0-0-0-0-0-0-0-0-6-6-| |-6-|

|-----------------------------|
|-----------------------------| x8
|-----------------------------|
|-7-x-6-7-x-6-7-7-7-x-6-7-x-6-|
|-7-x-6-7-x-6-7-7-7-x-6-7-x-6-|
|-7-x-6-7-x-6-7-7-7-x-6-7-x-6-|

|-----------------------------|
|-----------------------------| x5
|-----------------------------|
|-7-x-6-7-x-6-7-7-7-x-6-7-x-6-|
|-7-x-6-7-x-6-7-7-7-x-6-7-x-6-|
|-7-x-6-7-x-6-7-7-7-x-6-7-x-6-|
p.m........................

|-----------------------------|
|-----------------------------|
|-----------------------------|
|-7-x-6-7-x-6-7-7-7-x-6-7-x-6-|
|-7-x-6-7-x-6-7-7-7-x-6-7-x-6-|
|-7-x-6-7-x-6-7-7-7-x-6-7-x-6-|

|-----------------------------|
|-----------------------------| x8
|-----------------------------|
|-7-x-6-7-x-6-7-7-7-x-6-7-x-6-|
|-7-x-6-7-x-6-7-7-7-x-6-7-x-6-|
|-7-x-6-7-x-6-7-7-7-x-6-7-x-6-|

|--------------------|
|--------------------| x4
|--------------------|
|--------------------|
|-----12-12-11-11-10-|
|-0------------------|

Тональность:

Это должно быть в ТОП-листе! - Топ-лист композиций



Назад
Рекомендуем посмотреть другие песни исполнителя «System Of A Down»:

  • Комменты Fb ()
  • Комменты ВК



Добавить в Избранное Браузера
Сохранить здесь Очистить


x

0


+
-

+
-

-

Авторизация





Зарегистрироваться

M

Дата и время

  • 09:49:35
     

Социальные ссылки


Наши приложения

  • Muzbank App Play Market
  • Muzbank Amazon App