MUZBANK



A MOST COMPLETE BANK OF MUSIC INFORMATION

МУЗЫКАЛЬНО-ИНФОРМАЦИОННЫЙ БАНК







    SSystem Of A Down • Pictures (аккорды и текст - chords & lyrics)


    317

    Print

    Видео «Pictures (System Of A Down)»

    Видео клипы к песне подбираются автоматически сайтом youtube. Возможны некоторые несоответствия клипов песне.

    ↑ Спрятать рекламу ↑





     
    
    
    Band:System Of A Down
    Song:Pictures
    Tuning:CGCFAD
    Tabber:Glenn
    ...=palm-mute
    ~~~=tremolo
    /=slide-up
    
    intro
    ----------
    ----------
    ----------
    ----------
    -1--0-1-3-
    -1--0-1-3-
    
    ------------------|------------------
    ------------------|------------------
    ------------------|------------------
    ------------------|------------------
    -1--0-1-3-4-3-1-3-|-1--0-1-3-6-4-3-4-
    -1--0-1-3-4-3-1-3-|-1--0-1-3-6-4-3-4-
              .......            .......
    
    verse
    ---------------|------------------
    ---------------|------------------
    -7-7-7-7-7-7-7-|------------------
    -6-6-6-6-6-6-6-|------------------
    -5-5-5-5-5-5-5-|-1--0-1-3-4-3-1-3-
    -0-0-0-0-0-0-0-|-1--0-1-3-4-3-1-3-
     ...........              .......
    
    ---------------|------------------
    ---------------|------------------
    -7-7-7-7-7-7-7-|------------------
    -6-6-6-6-6-6-6-|------------------
    -5-5-5-5-5-5-5-|-1--0-1-3-6-4-3-4-
    -0-0-0-0-0-0-0-|-1--0-1-3-6-4-3-4-
     ...........              .......
    
    ---------------
    ---------------
    -7-7-7-7-7-7-7-
    -6-6-6-6-6-6-6-
    -5-5-5-5-5-5-5-
    -0-0-0-0-0-0-0-
     ...........
    
    chorus
    --------------6-5----------------------------6--5-----------------
    ------8--7-----------8--7------------8--7------------8--7---------
    -7---------------------------8--7----------------------------8~~~-
    ------------------------------------------------------------------
    ------------------------------------------------------------------
    ------------------------------------------------------------------
    
    -----------------------------------|-----------------------------------------------------------------
    -----------------------------------|-----------------------------------------------------------------
    -----------------------------------|-----------------------------------------------------------------
    -----------------------------------|-----------------------------------------------------------------
    ------1--0----5--4----8--7----5--4-|-1-1-0-0-0-0-0-0-5-5-4-4-4-4-4-4-8-8-7-7-7-7-7-7-5-5-4-4-4-4-4-4-
    -12/--1--0----5--4----8--7----5--4-|-1-1-0-0-0-0-0-0-5-5-4-4-4-4-4-4-8-8-7-7-7-7-7-7-5-5-4-4-4-4-4-4-
                                         ...............................................................
     

    Тональность:

    Это должно быть в ТОП-листе! - Топ-лист композиций



    Назад
    Рекомендуем посмотреть другие песни исполнителя «System Of A Down»:

    • Комменты Fb ()
    • Комменты ВК



    Добавить в Избранное Браузера
    Сохранить здесь Очистить


    x

    0


    +
    -

    +
    -

    -

    Авторизация





    Зарегистрироваться

    M

    Дата и время

    • 23:55:42
       

    Социальные ссылки


    Наши приложения

    • Muzbank App Play Market
    • Muzbank Amazon App