MUZBANK



A MOST COMPLETE BANK OF MUSIC INFORMATION

МУЗЫКАЛЬНО-ИНФОРМАЦИОННЫЙ БАНК







    SSystem Of A Down • Prison Song Live (аккорды и текст - chords & lyrics)


    304

    Print

    Видео «Prison Song Live (System Of A Down)»

    Видео клипы к песне подбираются автоматически сайтом youtube. Возможны некоторые несоответствия клипов песне.

    ↑ Спрятать рекламу ↑





     
    
    
    System Of A Down
    Song:Prison Song
    Album:Toxicity
    Live At The Lowlands
    Tabbed by the great(cough) dOwnstOnE
    Drop C Tuning
    
    U all know that., here we go
    
    ---|
    ---|
    ---|
    ---|
    0--|
    0--|
    
    Riff 1
    3x    
    -------|------------------------------------------|--|
    -------|------------------------------------------|  |
    -------|------------------------------------------|  |
    -------|------------------------------------------|  |--3x
    0-1-3-1|-8-8-8-8----------------------------------|  |
    0-1-3-1|-8-8-8-8----------------------------------|--|
                     Their trying to build a prison....
    
    Riff 2
    3x
    -------------|---------------|--|
    -------------|---------------|  |
    -------------|---------------|  | 
    -------------|---------------|  |--2x
    0-1-0-3-0-1-0|0-1-0-8-8-8-8--|  |
    0-1-0-3-0-1-0|0-1-0-8-8-8-8--|--|
    
    Riff 1(only once):RRRAAAHHHHHHH
    
    Riff 2(only once):
    
    Riff 3
    12x
    ---------------------|
    ---------------------|
    ---------------------|
    ---8-----------------|
    6-----6--------------|
    ---------------------|
       a
    
    Riff 3a
    4x
    ---------------------|
    ---------------------|
    ---------------------|
    ---8-----------------|
    6-----6--------------|
    ---------------------|
       a
    
    Riff 2:Their trying to build a prison...
    
    Riff 3:
    
    Riff 3a:
    
    Riff 2:
    
    Riff 1(only once):
    
    Riff 2(only once):
    
    Riff 4:
    
    ---------------------|
    --3----3--2----2-----|
    ----3-------2--------|
    ------3-------2------|
    0--------------------|
    ---------------------|
    
    Riff 5:
         3x
    ----|-------|---------|
    ----|-------|---------|
    ----|-------|---------|
    ----|-------|---------|
    0--0|0--0--0|8-8-8-8--|
    0--0|0--0--0|8-8-8-8--|
    
    Riff 5a:
         3x
    ----|-------|---------|
    ----|-------|---------|
    ----|-------|---------|
    ----|-------|---------|
    0--0|0--0--0|8-8-8-8--|
    0--0|0--0--0|8-8-8-8--|
    *  * *  *  * 
    
    Riff 3a:
    
    Riff 2:
    
    Riff 1(only once):
    
    Riff 2(only once):
    
    Riff 4a:
    
    -----------------------1---|
    ---3-----3--2----------3---|
    -----3--------2--------2---|
    -------3--------2------0---|
    0-----------------2--------|
    ---------------------------|
    
    Prison Song Ending(live)
    Riff 1
    
    (1)-1-----3--1--0----------------------|
    (3)---3------------3------3--------5---|
    (2)-----2---------------3---3----5---5-|
    (0)------------------------------------|
    ----------------------1--------3-------|
    ---------------------------------------|
    
    Riff 2
    
    1-----1-----1--0-----0-----0-----|
    --3-----3--------1-----1---------|
    ----2-----2--------0-----0-------|
    ---------------------------------|
    ---------------------------------|
    ---------------------------------|
    
    Repeat these and this goes into Know
    
    I hope this is right, and good luck
    
    dOwnstOnE@netscape.net  DownstOnE is also my other s/n
     

    Тональность:

    Это должно быть в ТОП-листе! - Топ-лист композиций



    Назад
    Рекомендуем посмотреть другие песни исполнителя «System Of A Down»:

    • Комменты Fb ()
    • Комменты ВК



    Добавить в Избранное Браузера
    Сохранить здесь Очистить


    x

    0


    +
    -

    +
    -

    -

    Авторизация





    Зарегистрироваться

    M

    Дата и время

    • 17:11:57
       

    Социальные ссылки


    Наши приложения

    • Muzbank App Play Market
    • Muzbank Amazon App