MUZBANK



A MOST COMPLETE BANK OF MUSIC INFORMATION

МУЗЫКАЛЬНО-ИНФОРМАЦИОННЫЙ БАНК







    SSystem Of A Down • Snowblind (аккорды и текст - chords & lyrics)


    223

    Print

    Видео «Snowblind (System Of A Down)»

    Видео клипы к песне подбираются автоматически сайтом youtube. Возможны некоторые несоответствия клипов песне.

    ↑ Спрятать рекламу ↑






     
    
    
    song:snowblind
    artist:system of a down
    album:naticity in black II
    tab by:leander m.
    
    tune drop C(D A F C G C)
    
    intro(also riff I)
    D|-------------------------------------------------------------|
    A|-------------------------------------------------------------|
    F|-------------------------------------------------------------|
    C|--0-0-0-2-2-2-3-3-3-3-3-3--------------3-3-3-3-3--5-5-5-5-5--|
    G|--------------------------3-3-3-5-5-5--1-1-1-1-1--3-3-3-3-3--|
    C|---------------------------------------0-0-0-0-0--0-0-0-0-0--|
        . . . . . . . . . . . . . . . . . .	
    
    stanza:
    D|-------------------------------------|
    A|-------------------------------------|
    F|-------------------------------------|
    C|-------------------------------------|
    G|--5--3----3-3-3-3-3-0-5--|
    C|-------------------------------------|
    
    riFF II
    D|------------------------------------|
    A|------------------------------------|
    F|------------------------------------|
    C|--12-10-9--5~~-0-8-8-8--0-10-10-10--|
    G|--12-10-9--5~~-0-8-8-8--0-10-10-10--|
    C|--12-10-9--5~~-0-8-8-8--0-10-10-10--|
    
    tah-nah-nah-tah-tah-tah-nah-nah
    (used riff I or the intro)
    
    (stanza)
    (riff II)
    intro(riff I)
    
    bridge: my eyes are bling and I cant see
    D|-----------------------------------------------------|
    A|-----------------------------------------------------|
    F|--11-12-11-12-11-11-12-11--x--9-10-9-10-9-9-10-9--x--|
    C|--11-11-11-11-11-11-11-11--x--9--9-9--9-9-9--9-9--x--|
    G|-----------------------------------------------------|
    C|-----------------------------------------------------|
         .  .  .  .  .  .  .  .     .  . .  . . .  . .		
    D|-----------------------------------------|
    A|-----------------------------------------|
    F|--7-8-7-8-7-7-8-7-x--6-7-6-7-6-6-7-6--x--|
    C|--7-7-7-7-7-7-7-7-x--6-6-6-6-6-6-6-6--x--|
    G|-----------------------------------------|
    C|-----------------------------------------|
        . . . . . . . .    . . . . . . . . 
    
    (base)
    D|---------------    ---------------|-----------|
    A|---------------    ---------------|-----------|
    F|---------------    ---------------|-----------|
    C|--0-0-2-3-2-0--    --0-2-3-2-0-5--|--0-5-(4x)-|
    G|--0-0-2-3-2-0--(6x)--0-2-3-2-0-3--|--0-3------|
    C|--0-0-2-3-2-0--    --0-2-3-2-0-0--|--0-0------|
    
    finale:
    D|------------------------------------------------|
    A|------------------------------------------------|
    F|-----11-12-11-12-11-12-11-x---9-10-9-10-9-10-9--|
    C|--11----------------------x-9-------------------|
    G|------------------------------------------------|
    C|------------------------------------------------|
         .	.  .  .  .  .  .  .   . .  . .  . .  . .		
    D|-------------------------------------|
    A|-------------------------------------|
    F|----7-8-7-8-7-8-7-x---6-7-6-7-6-7-6--|
    C|--7---------------x-6----------------|
    G|-------------------------------------|
    C|-------------------------------------|
        . . . . . . . .   . . . . . . . .
    					end
    transcribed by:leander_85@yahoo.com
    		09193216020(FOR PHIL. TAB SEEKER ONLY)
     

    Тональность:

    Это должно быть в ТОП-листе! - Топ-лист композиций



    Назад
    Рекомендуем посмотреть другие песни исполнителя «System Of A Down»:

    • Комменты Fb ()
    • Комменты ВК



    Добавить в Избранное Браузера
    Сохранить здесь Очистить


    x

    0


    +
    -

    +
    -

    -

    Авторизация





    Зарегистрироваться

    M

    Дата и время

    • 13:38:08
       

    Социальные ссылки


    Наши приложения

    • Muzbank App Play Market
    • Muzbank Amazon App