MUZBANK


МУЗЫКАЛЬНО-ИНФОРМАЦИОННЫЙ БАНК





SSystem Of A Down • Soldier side (аккорды и текст - chords & lyrics)


969

Print

Видео «Soldier side (System Of A Down)»

Видео клипы к песне подбираются автоматически сайтом youtube. Возможны некоторые несоответствия клипов песне.

↑ Спрятать рекламу ↑





 


Intro:
Eb|---------------------|---------------------------|-------------------------|
B |---------------------|---------------------------|-------------------------|
F#|-2---2-3-2-1----1----|-----3-5-5/75-3-2----2----|-1----1---------1--------|
C#|-0---------2---------|---------------------------|-2---------2-------------|
G#|-0---------2---------|---------------------------|-2-----------------------|
C#|-3-3-------2-2----2/-|-5-----------------0-----0-|-2-2----2-----2----2-----|

Verse:
|------------------------|---------------------------|----------------------|
|------2----2-3-3/5-5----|---------------------------|----------------------|
|------------------------|---2-----1------3------2---|---1-------1----------|
|----2---2---------------|-------------------------0-|-------2--------------|
|-0----------------------|---------------------------|----------------------|
|----------------------0-|-3---3-2---2--5---5------|-2---2---2---2--------|

|---------------------|----------------------------|------------------|
|-----2---2-3-3/5-5---|----------------------------|------------------|
|---------------------|---2-----1------3-----2-----|---1-------1------|
|---2---2-------------|------------------------0---|-------2----------|
|-0-------------------|----------------------------|------------------|
|-------------------0-|-3---3-2---2--5---5-----0-|-2---2---2---2----|

|-------------------------|
|-----2---2-3-3/5-5-------|
|-------------------------|
|---2---2-----------------|
|-0-----------------------|
|-------------------0-----|

Coda:
|----------------------------------------------------------|
|-10---10-11-10--9---9------11/13-13/1513-11-10---10------|
|-7--------------9-----------------------------------------|
|-7--------------9-----------------------------------------|
|---8--------------7---7/10----------------------8----8----|
|----------------------------------------------------------|

|----------------------------------|
|-9---9-------9---------------10---|
|-9-------9-------------9----------|
|-9------------------7-----7-------|
|-7-7---7---7---7------------------|
|------------------7---------------|
 

Тональность:

Это должно быть в ТОП-листе! - Топ-лист композиций



Назад
Рекомендуем посмотреть другие песни исполнителя «System Of A Down»:

  • Комменты Fb ()
  • Комменты ВК



Добавить в Избранное Браузера
Сохранить здесь Очистить


x

0


+
-

+
-

-

Авторизация





Зарегистрироваться

M

Дата и время

  • 08:07:21
     

Социальные ссылки


Наши приложения

  • Muzbank App Play Market
  • Muzbank Amazon App