MUZBANK



A MOST COMPLETE BANK OF MUSIC INFORMATION

МУЗЫКАЛЬНО-ИНФОРМАЦИОННЫЙ БАНК







    SSystem Of A Down • Streamline (аккорды и текст - chords & lyrics)


    299

    Print

    Видео «Streamline (System Of A Down)»

    Видео клипы к песне подбираются автоматически сайтом youtube. Возможны некоторые несоответствия клипов песне.

    ↑ Спрятать рекламу ↑





     
    
    
    Intro(clean):
       pm.............
    1:-------------------------------|
    2:-------------------------------|
    3:-------------------------------|
    4:-------------------------------|
    5:-------------------------------|
    6:-0--0-5b7--0-0-3---------|
    
    
    A(w/distortion)
    1:-------------------|
    2:-------------------|
    3:-------------------|
    4:-5-5-5-5-5-5--|
    5:-5-5-5-5-5-5--|
    6:-5-5-5-5-5-5--|
    
    
    B(w/distortion)
    1:------------------------|
    2:------------------------|
    3:------------------------|
    4:------------------------|
    5:-0--0------0-0-------|
    6:-0--0-5b7--0-0-3--|
    
    
    C(w/distortion)
    1:------------------|
    2:------------------|
    3:------------------|
    4:-8-8-8-8-7-5-|
    5:-8-8-8-8-7-5-|
    6:-8-8-8-8-7-5-|
    
    
    D1(clean)
    1:-----------------------------------------------------------------------|
    2:------10-------10-------10-------10-------10-------10-|-------11------8-|
    3:---11-------11-------11-------11-------11-------11----|----10-------7---|
    4:-0--------0--------0--------0--------0--------0------------|--8--------5-----|
    5:-----------------------------------------------------------------------|
    6:-----------------------------------------------------------------------|
    
    D2(clean)
    1:-------------------------------------------------------------------|
    2:------10-------10-------10-------10-------10------6-|-------6------8-|
    3:---11-------11-------11-------11-------11-------7---|----7-------7---|
    4:-0--------0--------0--------0--------0--------0---------|--8-------5-----|
    5:-------------------------------------------------------------------|
    6:-------------------------------------------------------------------|
    
    D3(clean)
    1:-----------------------------------------------------------------------|
    2:------10-------10-------10-------10-------10-------10---------|
    3:---11-------11-------11-------11-------11-------11------------|
    4:-0--------0--------0--------0--------0--------0------------|--8--------5-----|
    5:-----------------------------------------------------------------------|
    6:-----------------------------------------------------------------------|
    
    
    E1(w/distortion):
    1:-------------------------------|-10-10-10-10-10-10-|
    2:-------------------------------|-10-10-10-10-10-10-|
    3:------------------------------------------------|
    4:-5-5-5-5-5-5-|-5-5-5-5-5-5-|-5-5-5-5-5-5-------------------|
    5:-5-5-5-5-5-5-|-5-5-5-5-5-5-|-5-5-5-5-5-5-------------------|
    6:-5-5-5-5-5-5-|-5-5-5-5-5-5-|-5-5-5-5-5-5-------------------|
    
    
    Solo(w/distortion):
    1:-10------12------13------15-13-12--13-12^13^12-10-|
    2:-----10------10------10---------------------------------------|
    3:-------------------------------------------------------------------|
    4:-------------------------------------------------------------------|
    5:-------------------------------------------------------------------|
    6:-------------------------------------------------------------------|
    
    1:-10------12------13-------15-13-12--13-12^13^12-13-|--17-----------------------------------|
    2:-----10------10------10-----------------------------------------|------17---18-17-15--17-15-----|
    3:------------------------------------------------------------------------------------17----------|
    4:--------------------------------------------------------------------------------------------------|
    5:--------------------------------------------------------------------------------------------------|
    6:--------------------------------------------------------------------------------------------------|
    
    1:-17-------------------------------------------|--10------12------13-------15-13-12--13-12^13^12-13-|
    2:-----17---18-17^18^17-15--17-15----|------10------10------10----------------------------------------|
    3:--------------------------------17---------------------------------------------------------------------|
    4:---------------------------------------------------------------------------------------------------------|
    5:---------------------------------------------------------------------------------------------------------|
    6:----------------------------------------------------------------------------------------------------------|
    
    1:-17-------------------------------------------|--17-------------------------------------------|
    2:-----17---18-17^18^17-15--17-15----|------17---18-17^18^17-15--17-15----|
    3:--------------------------------17----------------------------------17------------|
    4:-------------------------------------------------------------------------------------|
    5:-------------------------------------------------------------------------------------|
    6:-------------------------------------------------------------------------------------|
    
    pm..............................................................................
    1:-17-17-17--------------------------------------|-17-17-17-------------------------------------|
    2:-----------17-17-17--18-17-15-17-15----17-17-17--18-17-15-17-15----|
    3:------------------------------------17-------------------------------------17-----------|
    4:-------------------------------------------------------------------------------------------|
    5:-------------------------------------------------------------------------------------------|
    6:-------------------------------------------------------------------------------------------|
    
    pm.................................................................
    1:-17-17-17-----------------------------------------------|-17-17-17------------------------|
    2:-----------17-17-17--18-17^18^17-15-17-15----17-17-17--------------|
    3:------------------------------------------17------------------------------------------|
    4:-----------------------------------------------------------------------5-5-5-5-5-5-|
    5:-----------------------------------------------------------------------5-5-5-5-5-5-|
    6:-----------------------------------------------------------------------5-5-5-5-5-5-|
    
    
    E2(w/distortion):
    
    4:-5-5-5-5-5-5-|-5-5-5-5-5-5-|-5-5-5-5-5-5-|-5-5-5-5-5-5-|
    5:-5-5-5-5-5-5-|-5-5-5-5-5-5-|-5-5-5-5-5-5-|-5-5-5-5-5-5-|
    6:-5-5-5-5-5-5-|-5-5-5-5-5-5-|-5-5-5-5-5-5-|-5-5-5-5-5-5-|
    
    
    
    ORDER:
    =====
    
    Intro  7x
    A      1x
    B      7x
    C      1x
    B      7x
    C      1x
    
    D1     4x
    D2     1x
    D1     1x
    
    A      1x
    B      3x
    C      1x
    B      3x
    C      1x
    B      3x
    C      1x
    B      3x
    C      1x
    
    D1     1x
    D3     1x
    D1     2x
    D2     1x
    D1     1x
    
    A      1x
    B      3x
    C      1x
    B      3x
    C      1x
    B      3x
    C      1x
    B      3x
    C      1x
    E1     1x
    
    Solo
    
    B      3x
    C      1x
    B      3x
    C      1x
    
    E1     1x
    
    B      8x
    E2     1x
    E1     1x
    
    
    I wasnґt there for you!
    I wasnґt there for you! 
    
    I know, weatherґs gonna be fine,
    But I canґt, see you ґcross the streamline,
    My love, waitґs for me in daytime,
    But I canґt, see you through the snowblind,
    I wasnґt there for you — 
    
    You are gone,
    (I wasnґt there for you)
    Goodbyes are long, Goodbye, 
    (I wasnґt there for you)
    Goodbye, I wasnґt there for goodbye, 
    I wasnґt there for goodbye... 
    
    Light now, Time reveals in hindsight,
    And I canґt wrestle with the stormy night,
    Because, your love lasts a lifetime,
    But I canґt, see you through the snowblind -
    
    (I wasnґt there for you)
    You are gone, 
    (I wasnґt there for you)
    Goodbyes are long, 
    You are gone, 
    (I wasnґt there for you)
    Goodbyes are long -
    Goodbye... 
    
    [Solo]
    
    I wasnґt there for you,
    I wasnґt there,
    I wasnґt there for you,
    (I wasnґt there for you),
    You are gone, 
    (Iwasnґt there for you)
    Goodbyes are long, 
    Goodbye!
    Goodbye -
    Goodbye!
     

    Тональность:

    Это должно быть в ТОП-листе! - Топ-лист композиций



    Назад
    Рекомендуем посмотреть другие песни исполнителя «System Of A Down»:

    • Комменты Fb ()
    • Комменты ВК



    Добавить в Избранное Браузера
    Сохранить здесь Очистить


    x

    0


    +
    -

    +
    -

    -

    Авторизация





    Зарегистрироваться

    M

    Дата и время

    • 06:57:01
       

    Социальные ссылки


    Наши приложения

    • Muzbank App Play Market
    • Muzbank Amazon App