MUZBANK


МУЗЫКАЛЬНО-ИНФОРМАЦИОННЫЙ БАНК





SSystem Of A Down • System Of A Down (аккорды и текст - chords & lyrics)


356

Print

Видео «System Of A Down (System Of A Down)»

Видео клипы к песне подбираются автоматически сайтом youtube. Возможны некоторые несоответствия клипов песне.

↑ Спрятать рекламу ↑





ENDING OF WAR AT LOWLANDS

G|---------------------------------------------------------|
C|--0-7-6--0-7-6-6-5---0-7-6--0-7-6-6-5--------------------|

Just Screw With It To Make It More
Interesting.

THETAWAVES

SOLO:
E|-------------------------------------------------|
B|-12-12-12-12-12-12-12-12-14-14-14-14-15-15-15-15-|
G|-------------------------------------------------|
D|-------------------------------------------------|
A|-------------------------------------------------|
E|-------------------------------------------------|

E|-------------------------------------------------|
B|-14-14-14-14-14-14-14-14-------------------------|
G|-------------------------12-12-12-12-11-11-11-11-|
D|-------------------------------------------------|
A|-------------------------------------------------|
E|-------------------------------------------------|

E|-------------------------------------------------|
B|-12-12-12-12-12-12-12-12-14-14-14-14-15-15-15-15-|
G|-------------------------------------------------|
D|-------------------------------------------------|
A|-------------------------------------------------|
E|-------------------------------------------------|

E|--------------------------------------------------|
B|-14-14-14-14-14-14-14-14-/19-19-19-19-19-19-19-19-|
G|--------------------------------------------------|
D|--------------------------------------------------|
A|--------------------------------------------------|
E|--------------------------------------------------|

SOLO B:
E|----------------------------------------------------|
B|-20--19-17-19--17-15-17--15-14-15--14--17--15-14-15-|
G|----------------------------------------------------|
D|----------------------------------------------------|
A|----------------------------------------------------|
E|----------------------------------------------------|

E|-----------------------------------------------------|
B|-14-12-11-12-14--14--14-1414-12-12-12-12-11-11-11-11-|
G|-----------------------------------------------------|
D|-----------------------------------------------------|
A|-----------------------------------------------------|
E|-----------------------------------------------------|

E|-------------------------|
B|-12-12-12-12-11-11-11-11-|
G|-------------------------|
D|-------------------------|
A|-------------------------|
E|-------------------------|

TEMPER INTRO

D|----------------------------------------------------1----|
A|----------------------2h3--2h3-1------1--1-2h3--1-3---4--|
F|-3--3-2h3p2-0--0-2--2------------3--3--------------------|

D|-3---5-6--5-6-5----------------|
A|---6------------3--3-4--(4-3)--|()=repeat

TEMPER SOLO

D|--------------------------------------------------------------------------|
A|-----1-3--1-1-------------------------2h3-3-4-4h6-4-1-3-4-3b-0-1-3-1-1-4-3|
F|-3-3-------3--3-2-3-2-0--0-2-3-3/5-2--------------------------------3-----|

D|-------3-2---2---|
A|-0-3-4-----4---4-|

STREAMLINE SOLO

E|--8---10---11----13-11-10-11-10-8-8---10---11---13-11-10-11-10-8-15-------|
B|----8----8----8---------------------8----8----8---------------------15-16-|
G|--------------------------------------------------------------------------|
D|--------------------------------------------------------------------------|
A|--------------------------------------------------------------------------|
E|--------------------------------------------------------------------------|

E|----------------15----------------------8---10---11---13-11-10-11-10-8-|
B|-15-13-15-13-------15-16-15-13-15-13------8----8----8------------------|
G|-------------15----------------------15--------------------------------|
D|-----------------------------------------------------------------------|
A|-----------------------------------------------------------------------|
E|-----------------------------------------------------------------------|

E|--15----------------------15----------------------|
B|-----15-16-15-13-15-13-------15-16-15-13-15-13----|
G|-----------------------15----------------------15-|
D|--------------------------------------------------|
A|--------------------------------------------------|
E|--------------------------------------------------|

SPIDERS SOLO

F|--14------15------18------14------15------18-|
C|---x-------x-------x-------x-------x-------x-|
G|--12------13------16------12------13------16-|
C|---------------------------------------------|

F|---19------20------18------19------20------18-|--------------------------|
C|---x-------x-------x-------x-------x-------x--| Hit Notes Multiple Times-|
G|--17------18------16------17------18------16--|--------------------------|
C|----------------------------------------------|--------------------------|

SOIL SOLO

E|-(10)------------|--------10-12--|-13----------12--13--|-15----------------|
B|-----------------|--------10-----|---------------------|-----------10^(10)-|
G|-----------------|--------10-----|---------------------|-------------------|
D|-----------------|---------------|---------------------|-------------------|
A|---0-------------|---------------|---------------------|-------------------|
E|---0-------------|---------------|---------------------|-------------------|

E|----------10-12--|-13-----------------|---------------------|
B|----------10-----|-----------------10^|(10)--------x---x--x-|
G|----------10-----|--------------------|------------x---x--x-|
D|-----------------|--------------------|------------x---x--x-|
A|-----------------|--------------------|---------------------|
E|-----------------|--------------------|---------------------|

E|-----------------------------|----------------------------|----|
B|-----------------------------|----------------------------|----|
G|-----------------------------|----------------------------|----|
D|----3h-----3h-----3h-----3h--|---3h-----3h-----3h-----3h--|----|
A|-3h5--5-3h5--5-3h5--5-3h5--5-|3h5--5-3h5--5-3h5--5-3h5--5-|3h5-|
E|-----------------------------|----------------------------|----|

E|------------|----------------------------|----------------------------|
B|-----x--x-x-|----------------------------|----------------------------|
G|-----x--x-x-|----------------------------|----------------------------|
D|-----x--x-x-|---3h-----3h-----3h-----3h--|---3h-----3h-----3h-----3h--|
A|(5)---------|3h5--5-3h5--5-3h5--5-3h5--5-|3h5--5-3h5--5-3h5--5-3h5--5-|
E|------------|----------------------------|----------------------------|

E|----|---------------|--------------------------------------------|
B|----|---------------|--------------------------------------------|
G|----|----------(11)-|-----10h--------10h--------10h--------10h---|
D|----|---------------|10h12---12-10h12---12-10h12---12-10h12---12-|
A|3h5-|-------/5⁄-----|--------------------------------------------|
E|----|---------------|--------------------------------------------|

E|-------------------------------------------|--------------|-------------|
B|-------------------------------------------|-11---11^(11)-|10-----------|
G|------10h--------10h--------10-12^---12h10-|--------------|---10--10-10-|
D|-10h12---12-10h12---12-10h12---------------|--------------|-------------|
A|-------------------------------------------|--------------|-------------|
E|-------------------------------------------|--------------|-------------|

E|-----------10------------10-|------------10---------------------|
B|-----10-10-10------10-10-10-|------10-10-10---------------------|
G|10h--10-10----10h--10-10----|-10h--10-10----------10-12^--12p10-|
D|10-12---------10-12---------|-10-12---------10h12---------------|
A|----------------------------|-----------------------------------|
E|----------------------------|-----------------------------------|
ph
E|----------------13-15-|15--15-15-15-15^--15^--15^--15^--15^--15^-|
B|13^(13)-13⁄8/15-------|------------------------------------------|
G|----------------------|------------------------------------------|
D|----------------------|------------------------------------------|
A|----------------------|------------------------------------------|
E|----------------------|------------------------------------------|

(Gtr.1 w
E|--------------------------------------|-------------------------------------|
B|--------------------------------------|-------------------------------------|
G|--------------------------------------|-------------------------------------|
D|-10--11-11-10--10-10-10⁄7-7-7-7⁄6-6-6-|-7--7-7-10--10-10-10⁄11-11-11-10--10-|
A|--9--10-10--9---9--9--9⁄6-6-6-6⁄5-5-5-|-6--6-6--9---9--9--9⁄10-10-10--9---9-|
E|--------------------------------------|-------------------------------------|

E|------------------------------------------|-----------------------------|
B|------------------------------------------|-----------------------------|
G|------------------------------------------|-----------------------------|
D|11--11-11-11/14-14-14-14⁄13-13-13-13⁄11-11|10--10-10-10⁄7-7---7⁄6-5--6/-|
A|10--10-10-10/13-13-13-13⁄12-12-12-12⁄10-10|-9---9--9--9⁄6-6---6⁄5-4--5/-|
E|------------------------------------------|-----------------------------|

E|----------------------------------------|
B|----------------------------------------|
G|11/12-12-12-12⁄11-11-11-11⁄8-8-8-8⁄7-7-7|
D|----------------------------------------|
A|----------------------------------------|
E|----------------------------------------|

E|----------------------------------------|
B|----------------------------------------|
G|7/8-8-8-8/11-11-11-11/12-12⁄11-11-11-11-|
D|----------------------------------------|
A|----------------------------------------|
E|----------------------------------------|

E|-----------------------------------------------|
B|-----------------------------------------------|
G|11/12-12-12-12/15-15-15-15⁄14-14-14-14⁄12-12-12|
D|-----------------------------------------------|
A|-----------------------------------------------|
E|-----------------------------------------------|

E|------------------------------xx-|
B|---------------------------------|
G|12⁄11-11-11-11⁄8-8-8-8⁄7-7-7-7---|
D|---------------------------------|
A|---------------------------------|
E|---------------------------------|

E|14/15-15-15-15⁄14-14-14-14⁄11-11-11-11⁄10-10-10-|
B|------------------------------------------------|
G|------------------------------------------------|
D|------------------------------------------------|
A|------------------------------------------------|
E|------------------------------------------------|

E|10/11-11-11-11/14-14-14-14/15-15⁄14-14--14-14-|
B|----------------------------------------------|
G|----------------------------------------------|
D|----------------------------------------------|
A|----------------------------------------------|
E|----------------------------------------------|

E|14/15-15-15-15/18-18-18-18⁄17-17-17-17⁄15-15-15-|
B|------------------------------------------------|
G|------------------------------------------------|
D|------------------------------------------------|
A|------------------------------------------------|
E|------------------------------------------------|

E|15⁄14-14-14-14⁄11-11-11-11⁄10-10-10-10-|
B|---------------------------------------|
G|---------------------------------------|
D|---------------------------------------|
A|---------------------------------------|
E|---------------------------------------|

SHIMMY INTERLUDE

E|------------------------|
B|------------------------|
G|------------------------|
D|------------------------|
A|s7--8--7--5--3--2--0----|
E|----------------------6-|

E|--------------------------------------------------|
B|--------------------------------------------------|
G|--------------------------------------------------|
D|-------6--7-6h7p6---------------------------------|
A|s7--8-------------8--7--8--7--5--3--2--3--2--0----|
E|------------------------------------------------6-|

NATIONS AT LOWLANDS

E|-12-10----12-10----12-10----12-12-10----12-12-10---10-10--12--12--13-|
B|---------------------------------------------------------------------|
G|---------------------------------------------------------------------|
D|---------------------------------------------------------------------|
A|---------------------------------------------------------------------|
E|---------------------------------------------------------------------|

E|-13--16--16--12--12--13--13--16-17-19-17-16-17-16--12--12--13--13-16-|
B|---------------------------------------------------------------------|
G|---------------------------------------------------------------------|
D|---------------------------------------------------------------------|
A|---------------------------------------------------------------------|
E|---------------------------------------------------------------------|

E|---16-17-19-17-16---12--12--13--13---16-------------16-16-16-16^-17-|
B|--------------------------------------------------------------------|
G|--------------------------------------------------------------------|
D|--------------------------------------------------------------------|
A|--------------------------------------------------------------------|
E|--------------------------------------------------------------------|

E|17-17-17-17-17-17-17-17-17-19-19-19-19-19-19-19-17-17-17-17-17-16-16-|
B|---------------------------------------------------------------------|
G|---------------------------------------------------------------------|
D|---------------------------------------------------------------------|
A|---------------------------------------------------------------------|
E|---------------------------------------------------------------------|

E|-16-16-16-16-16-16-16-16-16-|
B|----------------------------|
G|----------------------------|
D|----------------------------|
A|----------------------------|
E|----------------------------|

SCIENCE SOLO

E|----------------------------------8-----------|-----------|
B|------8-10-----8-10-11----8-10-11---11-10-----|-----------|
G|----7--------7----------7-----------------7---|-----------|
D|----------------------------------------------| (2 times)-|
A|--0--------0-----------0----------------------|-----------|
E|--0--------0-----------0----------------------|-----------|

E|----------------------------------8----8------|----------|
B|------8-10-----8-10-11----8-10-11---11---11---|----------|
G|----7--------7----------7---------------------|----------|
D|----------------------------------------------| (1 time)-|
A|--0--------0-----------0----------------------|----------|
E|--0--------0-----------0----------------------|----------|
Pm . .

E|-----------------------------------------------|----------|
B|-----8-10-8-7-7-7h8p7-------8-10-11-8-10-10-10-|----------|
G|---7------------------7---7--------------------|----------|
D|-----------------------------------------------|(5 times)-|
A|-0----------------------0----------------------|----------|
E|-0----------------------0----------------------|----------|
Pm .

E|-----------------------------------------------|----------|
B|-----8-10-8-7-7-7h8p7--------------------------|----------|
G|---7------------------7------------------------|----------|
D|-----------------------------------------------| (1 time)-|
A|-0---------------------------------------------|----------|
E|-0---------------------------------------------|----------|
pm

E|-------------------------------------------------|---------|
B|---8-10-11-8-10-10-10-11-8-10-10-10-11-8-10-10-10|---------|
G|--7----------------------------------------------|---------|
D|-------------------------------------------------|(1 time)-|
A|0------------------------------------------------|---------|
E|0------------------------------------------------|---------|

PSYCHO SOLO LIVE

E|-----------------------------------------------------|
B|-12--10-12-13--12-13-12h13p12------12-------------12-|
G|------------------------------14------14-13-13h14----|
D|-----------------------------------------------------|
A|-----------------------------------------------------|
E|-----------------------------------------------------|

E|---------------12-------------------------------------------------|
B|-10-12---10-12-----13-12-13-12h13p12------------------12----------|
G|-------------------------------------14^(14)^(14)-14-----14-13-13-|
D|------------------------------------------------------------------|
A|------------------------------------------------------------------|
E|------------------------------------------------------------------|

E|-----------------------------------|
B|-----------------12----------------|
G|-13-14-13--13-14----14-13-14----14-|
D|-----------------------------14----|
A|-----------------------------------|
E|-----------------------------------|

E|--------------------------------------------------------------|
B|-12-12-12-12-12-12-10-12-13-13-13-12-13-12-10-10-10-10-10-10--|
G|---9--9--9--9--9--9--9--9--9--9--9--9--9--9--9--9--9--9--9--9-|
D|--------------------------------------------------------------|
A|--------------------------------------------------------------|
E|--------------------------------------------------------------|

E|---------------------------------------------------------------|
B|-12-12-10-9-9-10-12-12-12-12-12-12-10-12-12-12-12-12-12-10-12--|
G|---9--9--9-9-------9--9--9--9--9--9--9--9--9--9--9--9--9--9--9-|
D|---------------------------------------------------------------|
A|---------------------------------------------------------------|
E|---------------------------------------------------------------|

E|-10-10-10----------------------------------------|
B|----------12-13-12-10-10-10-10-10-10-12---10---9-|
G|---9--9--9--9--9--9--9--9--9--9--9--9---9----9---|
D|-------------------------------------------------|
A|-------------------------------------------------|
E|-------------------------------------------------|

E|-*12-12-12-12-12---------------------------------------------------10-12-12-|
B|-----------------13-12-10-12-12h13-13^-13-13-12-10------12-12-13-13---------|
G|--------------------------------------------------13-14---------------------|
D|----------------------------------------------------------------------------|
A|----------------------------------------------------------------------------|
E|----------------------------------------------------------------------------|

E|-13-15-15-13-12-10-10-12-13-12h13p12----------------------------------------|
B|-------------------------------------15-13-12-12-12h13p12p10-10-10-15-13-12-|
G|----------------------------------------------------------------------------|
D|----------------------------------------------------------------------------|
A|----------------------------------------------------------------------------|
E|----------------------------------------------------------------------------|

E|-------------------------------------------------------------------------10-|
B|-12--12h13p12p10-10-10-10-9-9-9-10-12-13-13p12p10-12p10-13-12-10-12-10------|
G|----------------------------------------------------------------------------|
D|----------------------------------------------------------------------------|
A|----------------------------------------------------------------------------|
E|----------------------------------------------------------------------------|

E|-10----------------------------|
B|----13-12-10-12-10-13-12-13-15-|
G|-------------------------------|
D|-------------------------------|
A|-------------------------------|
E|-------------------------------|

E|------------------------0-0---0--0-|
B|-15-13-12-13-12-10-10-10-10- 10-10-|
G|-----------------------------------|
D|-----------------------------------|
A|-----------------------------------|
E|-----------------------------------|

PRISON SONG LIVE OUTRO

D|-----1---------3--1--0-|
A|--------3--------------|
F-----------2------------|
C--0---------------------|
G|-----------------------|
C------------------------|

D|--------------------------|
A|---------3------------5---|
F------------3------------5-|
C------3-------------5------|
G|---1-------------3--------|
C---------------------------|

While he's singing he plays:
D|-----3---------3------|
A|--------3---------3---|
F-----------2---------2-|
C--0--------------------|
G|----------------------|
C-----------------------|

D|--------------------------|
A|---------5------------5---|
F------------5------------5-|
C------5-------------5------|
G|---3-------------3--------|
C---------------------------|

PEEPHOLE SOLO

D|-----------------------------------------------------------------------------|
A|15--16015h16p15-----15--15-16-15h16p15------15-15-16-15h16p15----15----------|
F|-----------------17---------------------17--------------------17----17-15-14-|
C|-----------------------------------------------------------------------------|
G|-----------------------------------------------------------------------------|
C|-----------------------------------------------------------------------------|
let ring........................................

D|---------------------------------------------------------------|
A|---------------------------------------------------------------|
F|--15-14h15p14-----------0-------0------0------0------0-------0-|
C|--------------17----16------16-----16-----16-----16------16----|
G|---------------------------------------------------------------|
C|---------------------------------------------------------------|

D|---*10----*10----*10-----*10------------*9---*9-----9-----*7-----------|
A|-8------8------8------8-------8-8-8--7-----7-----7-----7------7⁄14--14-|
F|-----------------------------------------------------------------------|
C|-----------------------------------------------------------------------|
G|-----------------------------------------------------------------------|
C|-----------------------------------------------------------------------|

D|-------16----16^--------16--16--16----------10-----10-----10-----10---------|
A|-14----14----14^--------14--14--14--14⁄8--------8------8------8-----8--8--8-|
F|-------------1/2 bend-------------------------------------------------------|
C|----------------------------------------------------------------------------|
G|----------------------------------------------------------------------------|
C|----------------------------------------------------------------------------|

D|---*9-----9-----9------------------8-----8/10---8--(8)⁄-----6--6h/8---6-----|
A|7------7-----7-----7-7-7-7-6--6-------------------------4-----------------6-|
F|----------------------------------------------------------------------------|
C|----------------------------------------------------------------------------|
G|----------------------------------------------------------------------------|
C|----------------------------------------------------------------------------|

D|-----10-----10------*10------*10----------------9-----*9-----*9--------------|
A|--8------8------8---------8-------8--8--8--*7------7------7-------7-7-7-7⁄14-|
F|-----------------------------------------------------------------------------|
C|-----------------------------------------------------------------------------|
G|-----------------------------------------------------------------------------|
C|-----------------------------------------------------------------------------|

D|------16---1616----16^-^16--*16--16-----16-16-16-16-16-16-16⁄14----|
A|-14---14---1414----1/2---------------14-------------------------12-|
F|-------------------------------------------------------------------|
C|-------------------------------------------------------------------|
G|-------------------------------------------------------------------|
C|-------------------------------------------------------------------|

D|-15----15----15----15------15-15-15-15----15---15-----15--15---15--|
A|-14----14----14----14------14-14-14-14----14---14-----14--14---14⁄-|
F|-12----12----12----12------12-12-12-12----12---12-----12--12---12⁄-|
C|-------------------------------------------------------------------|
G|-------------------------------------------------------------------|
C|-------------------------------------------------------------------|

NUGUNS SOLO

SOLO: (guitar 1)
E|-----------------------------------------------------------|
B|-----------------------------------------------------------|
G|-7(trem)--8(trem)--7----7^---------------------------------|
D|---------------------10-----10-8-10^--8-7-8^--7----7(trem)-|
A|------------------------------------------------10---------|
E|-----------------------------------------------------------|

E|--------------------------------------------------------------------|
B|-----------------------------10(trem)---13--11-10-10h11p10-10h11p10-|
G|--------------------------------------------------------------------|
D|-10^--8-7-8^--7---------7-------------------------------------------|
A|----------------10-9-10---10----------------------------------------|
E|--------------------------------------------------------------------|

E|---------------------------------------------------------------|
B|-13-11-10-10h11p10-10h11p10--10(trem)---13--11-10-11--10-------|
G|---------------------------------------------------------12-11-|
D|---------------------------------------------------------------|
A|---------------------------------------------------------------|
E|---------------------------------------------------------------|

SOLO: (guitar 2)
E|-11-11-11-12-14-12-11-12-11----11----------------------|
B|----------------------------14----14-12-14-12-11-12-11-|
G|-------------------------------------------------------|
D|-------------------------------------------------------|
A|-------------------------------------------------------|
E|-------------------------------------------------------|

E|-----------------------------------------------------|
B|-----------------------------------------------------|
G|-14-141414-141414-141414-141414-141414-141414-141414-|
D|-----------------------------------------------------|
A|-----------------------------------------------------|
E|-----------------------------------------------------|

E|------------------------------------------------------|
B|------------------------------------------------------|
G|15h17p15-15h17p15-15h17p15-15h17p15-15h17p15-15h17p15-|
D|------------------------------------------------------|
A|------------------------------------------------------|
E|------------------------------------------------------|

E|-------------------------------------------------------------|
B|-------------------15-15-15-15-15-15-15-15h16-18-16-15-16-15-|
G|-15h17p15-15h17p15-14-14-14-14-14-14-14-14-------------------|
D|-------------------------------------------------------------|
A|-------------------------------------------------------------|
E|-------------------------------------------------------------|

E|----------------------|
B|----------------------|
G|-17-15-13-12-13-15-13-|
D|----------------------|
A|----------------------|
E|----------------------|

MARMALADE SOLO

E|--5-5-5-5-5-5-5-5-7-7-7-7-7-7-8-8-8-8-8-4-4-4-4-4-4-4-4--12-12-12-12-|
B|--5-5-5-5-5-5-5-5-7-7-7-7-7-7-8-8-8-8-8-4-4-4-4-4-4-4-4--13-13-13-13-|
G|---------------------------------------------------------------------|
D|---------------------------------------------------------------------|
A|---------------------------------------------------------------------|
E|---------------------------------------------------------------------|

E|--12-12-12-12-5-5-5-5-5-5-5-5-7-7-7-7-7-8-8-8-8-3-3-3-3-3-3-3-3-|
B|--12-12-12-12-5-5-5-5-5-5-5-5-7-7-7-7-7-8-8-8-8-3-3-3-3-3-3-3-3-|
G|----------------------------------------------------------------|
D|----------------------------------------------------------------|
A|----------------------------------------------------------------|
E|----------------------------------------------------------------|

E|--12-12-12-12-12-12-12-12-5-5-7-7-8-8-7-7-10-10-8-8-7-7-8-8-4-4-5-5-7-7-|
B|--13-13-13-13-12-12-12-12-----------------------------------------------|
G|------------------------------------------------------------------------|
D|------------------------------------------------------------------------|
A|------------------------------------------------------------------------|
E|------------------------------------------------------------------------|

E|--5-5-8-8-7-7-5-5-7-7-5-5-7-7-8-8-7-7-10-10-8-8-7-7-8-8-3-3-5-5-7-7-5-5-|
B|------------------------------------------------------------------------|
G|------------------------------------------------------------------------|
D|------------------------------------------------------------------------|
A|------------------------------------------------------------------------|
E|------------------------------------------------------------------------|

E|--12-12-10-10-13-13-12-|
B|-----------------------|
G|-----------------------|
D|-----------------------|
A|-----------------------|
E|-----------------------|

LA ISLA BONITA ROCK AM RING

F-----------------9-------------------7-----------5---------------------------|
C-----7--------9-----------5-------7-----------5-----------2------4-------3---|
G|----7--------7----7------5-------5-----5-----3-----3-----2------5-------3---|
C--7----7---------------5----5--------------------------2------5-----5-3----3-|

Thats All, Just Screw Around With It A Bit And all
To Make It More Interesting.

JET PILOT INTERLUDE

E|-----------------------------------------------------------------|
B|-----------------------------------------------------------------|
G|-----------------------------------------------------------------|
D|--------3--------2--------0--------2--------0--------------------|4X
A|-0-------------------------------------------------3-------1-----|
E|-----------------------------------------------------------------|

E|----------------------------------------------------------------|
B|------------------------------------------------6-5-----5-------|
G|------------2---3---2---5---3---7---5---8---7-------7-5---7-5---|
D|----3---5-----------------------------------------------------6-|
A|-0--------------------------------------------------------------|
E|----------------------------------------------------------------|

HIGHWAY SONG SOLO

E|----10-12-----10----12-10----10-12---10---12-10-|
B|-10--------10----10--------9-------9----9-------|
G|------------------------------------------------|
D|------------------------------------------------|
A|------------------------------------------------|
E|------------------------------------------------|

E|----13-12-----13----13-12-----13-12-----13----13-12-|
B|-11--------11----11--------10--------10----10-------|
G|----------------------------------------------------|
D|----------------------------------------------------|
A|----------------------------------------------------|
E|----------------------------------------------------|

GOODBYE BLUE SKY

E||----------------|----------------|----------------|----------------|
B||-------0--------|-------0--------|-------0--------|-------0--------|
G||---4------4---4-|---4------4---4-|---4------4---4-|---4------4-----|
D||-5---5------5---|-5---5------5---|-5---5------5---|-5---5------5-0-|
A||----------------|----------------|----------------|----------------|

E|---------|--------|--------|--------|--------|--------|--------|--------|
B|---------|--------|--------|--------|--------|--------|--------|--------|
G|-----0---|----0---|----0---|----0---|----0---|----0---|----0---|----0---|
D|---4---4-|--4---4-|--4---4-|--4---4-|--4---4-|--4---4-|--4---4-|--4-----|
A|-2-------|2-------|2-------|2-------|2-------|2-------|2-------|2-----0-|
E|---------|--------|--------|--------|--------|--------|--------|--------|

E|---------|--------|--------|--------|
B|---------|--------|--------|--------|
G|-----0---|----0---|----0---|----0---|
D|---4---4-|--4---4-|--4---4-|--4-----|
A|-5-------|5-------|5-------|5-----0-|
E|---------|--------|--------|--------|

E|---------|--------|--------|--------|
B|---------|--------|--------|--------|
G|-----0---|----0---|----0---|----0---|
D|---4---4-|--4---4-|--4---4-|--4-----|
A|-2-------|2-------|2-------|2-----0-|
E|---------|--------|--------|--------|

E|-----------------------------------|--------------------------------|
B|-----------------------------------|--------------------------------|
G|-----5---5-------4-4---------------|--5---5-------4-4-4-------------|
D|-------------2-------2---2---2---2-|----------2-----------2---2---2-|
A|-0-----0---0---0-------0---0---0---|0---0---0---0-------0---0---0---|
E|---0-------------------------------|--------------------------------|

E|--------------------------------|
B|--------------------------------|
G|--5---5-------4-4-----4---5---6-|
D|----------2-------2-------------|
A|0---0---0---0-------0---0---0---|
E|--------------------------------|

E|----------------|----------------|----------------|----------------|
B|----------------|----------------|----------------|----------------|
G|-------0--------|-------0--------|-------0--------|-------0--------|
D|---4------4---4-|---4------4---4-|---4------4---4-|---4------4---4-|
A|-5---5------5---|-5---5------5---|-5---5------5---|-5---5------5---|
E|----------------|----------------|----------------|----------------|

E|---------|--------|--------|--------|--------|--------|--------|--------|
B|---------|--------|--------|--------|--------|--------|--------|--------|
G|-----0---|----0---|----0---|----0---|----0---|----0---|----0---|----0---|
D|---4---4-|--4---4-|--4---4-|--4---4-|--4---4-|--4---4-|--4---4-|--4-----|
A|-5-------|5-------|5-------|5-------|5-------|5-------|5-------|5-----0-|
E|---------|--------|--------|--------|--------|--------|--------|--------|

DRUGS

------------------|
3-3-3--3-3--3-3-3-|
2-2-2--0-0--2-2-2-|
0-0-0--0-0--0-0-0-|
------------------|
------------------|

------------------|
3-3-3--3-3--3-3-3-|
2-2-2--0-0--2-2-2-|
0-0-0--0-0--0-0-0-|
------------------|
------------------|

-----------------------------------|
3-3-3--3~~--3-3-3--3-3--3-3-3--3-3-|
2-2-2--0~~--2-2-2--0-0--2-2-2--0-0-|
0-0-0--0~~--0-0-0--0-0--0-0-0--0-0-|
-----------------------------------|
-----------------------------------|

DEER DANCE SOLO

E|-6-5-----8-6-5---|-----------|
B|-----6-3-------6-|-----------|
G|-----------------|-----------|
D|-----------------|-----------|
A|-----------------|-----------|
E|-----------------| repeat 3X-|

E|-6-5---------------------------------8~~~~~~~10~~~~~12~~~~10~~~~~8~~~~5~~~~-|
B|-----6--11-10-------------11~~~~~~~~~---------------------------------------|
G|------3-------12-12~~~~~~~--------------------------------------------------|
D|----------------------------------------------------------------------------|
A|----------------------------------------------------------------------------|
E|----------------------------------------------------------------------------|

ATWA

E|---------------------------------------------------|
B|---------------------------------------------------|
G|-----3-----2-----5-----7------8------7-----5-----3-|
D|---------------------------------------------------|
A|---------------------------------------------------|
E|-05---5⁄3---3/7---7/8---8/10---10⁄8---8⁄7---7⁄5----|

Тональность:

Это должно быть в ТОП-листе! - Топ-лист композиций



Назад
Рекомендуем посмотреть другие песни исполнителя «System Of A Down»:

  • Комменты Fb ()
  • Комменты ВК



Добавить в Избранное Браузера
Сохранить здесь Очистить


x

0


+
-

+
-

-

Авторизация





Зарегистрироваться

M

Дата и время

  • 10:11:23
     

Социальные ссылки


Наши приложения

  • Muzbank App Play Market
  • Muzbank Amazon App