MUZBANK



A MOST COMPLETE BANK OF MUSIC INFORMATION

МУЗЫКАЛЬНО-ИНФОРМАЦИОННЫЙ БАНК







    SSystem Of A Down • Theta waves (аккорды и текст - chords & lyrics)


    272

    Print

    Видео «Theta waves (System Of A Down)»

    Видео клипы к песне подбираются автоматически сайтом youtube. Возможны некоторые несоответствия клипов песне.

    ↑ Спрятать рекламу ↑





     
    
    
    1x:                       1x:
    pm....................................................................
    1:---------------------------------------------------------------------------|
    2:---------------------------------------------------------------------------|
    3:---------------------------------------------------------------------------|
    4:---------------------------------------------------------------------------|
    5:-11-12-11-12-11-12-11-12-|-12-12-12-12-12-12-12-12-|-5-7-5-5-5-5-5-5-|
    6:-11-12-11-12-11-12-11-12-|-12-12-12-12-12-12-12-12-|-5-7-5-5-5-5-5-5-|
    
    
    B
    2x:                         1x:                       1x:
    pm..............................................................
    1:--------------------------------------------------------------------|
    2:--------------------------------------------------------------------|
    3:--------------------------------------------------------------------|
    4:--------------------------------------------------------------------|
    5:-11-12-11-12-11-12-11-12-|-12-12-12-12-12-12-12-12-|-5-7-5-5-5--|
    6:-11-12-11-12-11-12-11-12-|-12-12-12-12-12-12-12-12-|-5-7-5-5-5--|
    
    
    C
    pm..................................
    1:----------------------------------------------|
    2:----------------------------------------------|
    3:----------------------------------------------|
    4:-----------------------------------|--------ah4--ah4-|
    5:----------------------------------------------|
    6:-5-5-5-5-5-7-5-5-|-5-5-5-5-5-7-5-5-|-4--4---------------|
    
    
    D
    pm..................................
    1:----------------------------------------------------------|
    2:----------------------------------------------------------|
    3:----------------------------------------------------------|
    4:-----------------------------------|---ah4---ah4---ah4---ah4-|
    5:----------------------------------------------------------|
    6:-5-5-5-5-5-7-5-5-|-5-5-5-5-5-7-5-5-|-4-----4-----4-----4-----------|
    
    
    E
    4:-5--5--0-0-0-0-|-5--5--0-0-0-0-|-4--4--4--4--4-4-4-4-|-5--5--0-0-0-0-|-5--5--0-0-0-0-|
    5:-5--5--0-0-0-0-|-5--5--0-0-0-0-|-4--4--4--4--4-4-4-4-|-5--5--0-0-0-0-|-5--5--0-0-0-0-|
    6:-5--5--0-0-0-0-|-5--5--0-0-0-0-|-4--4--4--4--4-4-4-4-|-5--5--0-0-0-0-|-5--5--0-0-0-0-|
    
    
    F
    4:-4--5--4--5/7--5--4-|-4--5----------------|-4--5--4--5/7--5--4---------------|
    5:-4--5--4--5/7--5--4-|-4--5--0--2--4--5-|-4--5--4--5/7--5--4-|-2--4--2--4/5--4--2-|
    6:-4--5--4--5/7--5--4-|-4--5----------------|-4--5--4--5/7--5--4---------------|
    
    
    G
    1:-------------------------|
    2:-------------------------|
    3:-------------------------|
    4:-4--5--4--5/7--5--4-|
    5:-4--5--4--5/7--5--4-|
    6:-4--5--4--5/7--5--4-|
    
    
    Solo
    1:-7-7-7-7-7-7-7-7-|-9-9-9-9-10-10-10-10-|-9-9-9-9-9-9-9-9-------------|
    2:------------------------------------------------------|-8-8-8-8-7-7-7-7-|
    3:------------------------------------------------------------------|
    4:------------------------------------------------------------------|
    5:------------------------------------------------------------------|
    6:------------------------------------------------------------------|
    
    1:-7-7-7-7-7-7-7-7-|-9-9-9-9-10-10-10-10-|-9-9-9-9-9-9-9-9/|-14-14-14-14-14-14-14-14-|
    2:--------------------------------------------------------------------------------|
    3:--------------------------------------------------------------------------------|
    4:--------------------------------------------------------------------------------|
    5:--------------------------------------------------------------------------------|
    6:--------------------------------------------------------------------------------|
    
    1:-7-7-7-7-7-7-7-7-|-9-9-9-9-10-10-10-10-|-9-9-9-9-9-9-9-9-------------|
    2:------------------------------------------------------|-8-8-8-8-7-7-7-7-|
    3:------------------------------------------------------------------|
    4:------------------------------------------------------------------|
    5:------------------------------------------------------------------|
    6:------------------------------------------------------------------|
    
    1:-7-7-7-7-7-7-7-7-|-9-9-9-9-10-10-10-10-|-9-9-9-9-9-9-9-9/|-14-14-14-14-14-14-14-14-|
    2:--------------------------------------------------------------------------------|
    3:--------------------------------------------------------------------------------|
    4:--------------------------------------------------------------------------------|
    5:--------------------------------------------------------------------------------|
    6:--------------------------------------------------------------------------------|
    
    1:-15--14-12-14--12-10-12--10-9-10--9-|-12--10-9-10--9-7-6-7-9--9--9--9-99/7--7--7--7-|
    2:-------------------------------------------------------------------------------------------------------|
    3:-------------------------------------------------------------------------------------------------------|
    4:-------------------------------------------------------------------------------------------------------|
    5:-------------------------------------------------------------------------------------------------------|
    6:-------------------------------------------------------------------------------------------------------|
    
    1:-6--6--6--6--7--7--7--7--66666666-66666666-|
    2:-------------------------------------------------------------|
    3:-------------------------------------------------------------|
    4:-------------------------------------------------------------|
    5:-------------------------------------------------------------|
    6:-------------------------------------------------------------|
    
    
    ORDER:
    =====
    
    A 3x
    B
    C, D, C, D
    E
    F 2x
    C
    C, D, C, D
    E
    G
    E
    F 2x
    Solo
    E
    G
    E
    F 2x
    
    Text:
    
    The unsettled mind is at times an ally,
    Leaving the senses to fend for them selves,
    The senses collect undeniable data,
    About beta carotine and theta waves,
    
    The unsettled mind is at times an ally,
    Leaving the senses to fend for them selves,
    Then, the senses wanted the sky,
    All rise, I fall,
    
    Time feels like a midnight ride,
    Finality waits outside,
    Weeping in perplexityґs arms,
    Curessing our smiles inside,
    
    The National debt is at times an ally,
    Leaving the senses to fend for them selves,
    The senses collect undeniable data,
    About high pulse weapons and microwaves,
    
    The National debt is at times an ally,
    Leaving the senses to fend for them selves,
    Then, the people found out the lie,
    All rise, I fall,
    
    Now I rise, and then fall,
    
    Time feels like a midnight ride,
    Finality waits outside,
    Weeping in perplexityґs arms,
    Curessing our smiles inside,
    
    Wanting to get you high,
    Wanting to touch the sky,
    All rise, I fall,
    
    Now I rise, and then fall,
    
    Time feels like a midnight ride,
    Finality waits outside,
    Weeping in perplexityґs arms,
    Curessing our smiles inside.
    
    E
    G
    E
    F 2x
     

    Тональность:

    Это должно быть в ТОП-листе! - Топ-лист композиций



    Назад
    Рекомендуем посмотреть другие песни исполнителя «System Of A Down»:

    • Комменты Fb ()
    • Комменты ВК



    Добавить в Избранное Браузера
    Сохранить здесь Очистить


    x

    0


    +
    -

    +
    -

    -

    Авторизация





    Зарегистрироваться

    M

    Дата и время

    • 04:46:41
       

    Социальные ссылки


    Наши приложения

    • Muzbank App Play Market
    • Muzbank Amazon App