MUZBANK



A MOST COMPLETE BANK OF MUSIC INFORMATION

МУЗЫКАЛЬНО-ИНФОРМАЦИОННЫЙ БАНК







    SSystem Of A Down • X (аккорды и текст - chords & lyrics)


    278

    Print

    Видео «X (System Of A Down)»

    Видео клипы к песне подбираются автоматически сайтом youtube. Возможны некоторые несоответствия клипов песне.

    ↑ Спрятать рекламу ↑





     
    
    
    (EADG)
    
    
    Here are the Bass Tabs to X #5 off of Toxicity
    
    Intro
    
    |--------------------------|
    |--------------------------|
    |--5--55--5--55-55---------|
    |--------------------------|
    
    ver 1
    
    |------------------------------|
    |------------------------------|
    |-----------8888----------566--|
    |-0-0-0-0-0------0-0-0-0-0-----|(x4or5)
    
    Ver 2
    
    |---------------|
    |---------------|
    |-3-5-6-5-------|
    |---------------|(X10) PLAY REALLY FAST
    TELL THE PEOPLE,TELL THE PEOPLE THAT ARIVE...
    
    
    |------------------------------|
    |------------------------------|
    |-----------8888----------566--|
    |-0-0-0-0-0------0-0-0-0-0-----|(x2)
     right after ver 2
    
    |---------------|
    |---------------|
    |-3-5-6-5-------|
    |---------------|(X15) play really fast
    
    
    |------------------------------|
    |------------------------------|
    |-----------8888----------566--|
    |-0-0-0-0-0------0-0-0-0-0-----|(x2)
     
    You could play along with the guitar in this next part
    
    |---------10--10-10-----|
    |-----------------------|
    |-----------------------|
    |-0-0-0-00---0--0--9999-|(x4)
    
    
    |---------------|
    |---------------|
    |-3-5-6-5-------|
    |---------------|(X15) play really fast
    
    That is it that is all.  Short,easy,and cool
    
    Now get out their and play this song
     

    Тональность:

    Это должно быть в ТОП-листе! - Топ-лист композиций



    Назад
    Рекомендуем посмотреть другие песни исполнителя «System Of A Down»:

    • Комменты Fb ()
    • Комменты ВК



    Добавить в Избранное Браузера
    Сохранить здесь Очистить


    x

    0


    +
    -

    +
    -

    -

    Авторизация





    Зарегистрироваться

    M

    Дата и время

    • 23:57:01
       

    Социальные ссылки


    Наши приложения

    • Muzbank App Play Market
    • Muzbank Amazon App