MUZBANK



A MOST COMPLETE BANK OF MUSIC INFORMATION

МУЗЫКАЛЬНО-ИНФОРМАЦИОННЫЙ БАНК







    TTaking Back Sunday • Great Romances Of The 20th Ce (аккорды и текст - chords & lyrics)


    340

    Print

    Видео «Great Romances Of The 20th Ce (Taking Back Sunday)»

    Видео клипы к песне подбираются автоматически сайтом youtube. Возможны некоторые несоответствия клипов песне.

    ↑ Спрятать рекламу ↑






     
    
    
    Taking Back Sunday - Great Romances of the 20th Century
    
    
    Tabbed by Jason Seifried RuriK101@bellsouth.net 
    
    Symbols: 
    > = note times four 
    
    Intro 
    ------------ 
    ------------ 
    --------6--- 
    -7--9--9--7- 
    
    Intro 2 
    1st time 2nd Time 
    --------------------------|-----------|--------| 
    -976----6-6-6-------------|-----------|--------| 
    ----9-9-------------------|-9-7-6-4---|-9-7----| 
    --------------------------|-----------|-----4--| 
    
    Verse 1 
    
    -------------- 
    -------------- 
    -------2>---44 
    -4>-0>----22-- 
    
    rest 
    
    Verse 2 
    
    ------------- 
    ------------- 
    -21---------- 
    ---4>-0>-2>-- 
    
    Pre-Chorus 
    
    ------------- 
    ------------- 
    ------------- 
    -44-22-00-00- 
    
    Chorus 
    ------------- 
    ------------- 
    ------------- 
    -4>-2>-0>>--- 
    
    Chorus-Var 1 
    x1 x5 
    -------|----| 
    -------|----| 
    -------|-2--| 
    -4>-2>-|--20| 
    
    Chorus-Var 2 
    x1 x5 
    -------|----| 
    -------|----| 
    ----2>-|-2--| 
    -4>----|--20| 
    
    Chorus-End 
    x5 
    |----| 
    |-2--| 
    |--20| 
    
    Interlude 1 
    ------------------ 
    ------------------ 
    ------------------ 
    -0-7-0-7-0-7-0-7>> 
    
    Interlude 2 
    ------------------------ 
    ------------------------ 
    ------------------------ 
    444-222-444-222-44-22-0- 
    
    Interlude 3 
    -------------- 
    -------------- 
    -------------- 
    4>>-2>>-0>>>>- 
    
    Intro x2 
    Intro Pt2 x2 
    Verse 1 x3 
    rest 
    Verse 2 x3 
    Pre-Chorus x2 
    Chorus x2 
    Chorus Var1 x1 
    Chorus Var2 x1 
    Chorus Var1 x1 
    Chorus Var2 x1 
    Chorus-End x1 
    Interlude 1 x1 
    Interlude 2 x4 
    Interlude 3 x1 
    Interlude 2 x1
     

    Тональность:

    Это должно быть в ТОП-листе! - Топ-лист композиций



    Назад
    Рекомендуем посмотреть другие песни исполнителя «Taking Back Sunday»:

    • Комменты Fb ()
    • Комменты ВК



    Добавить в Избранное Браузера
    Сохранить здесь Очистить


    x

    0


    +
    -

    +
    -

    -

    Авторизация





    Зарегистрироваться

    M

    Дата и время

    • 01:09:13
       

    Социальные ссылки


    Наши приложения

    • Muzbank App Play Market
    • Muzbank Amazon App