MUZBANK


МУЗЫКАЛЬНО-ИНФОРМАЦИОННЫЙ БАНК





ТТальков Игорь • У каждого из нас на свете есть места (аккорды и текст - chords & lyrics)


3419

Print

Видео «У каждого из нас на свете есть места (Тальков Игорь)»

Видео клипы к песне подбираются автоматически сайтом youtube. Возможны некоторые несоответствия клипов песне.

↑ Спрятать рекламу ↑





/ C#m F#m H7 Emaj7 Amaj7 F#m G#7 C#m /
 
    C#m*                   G#7/C    
У каждого из нас на свете есть места,
      Cdim7             C#m   
Куда приходим мы на миг уединиться,
        F#m7          F#m6/D#    C#m/E    
Где память, как строка почтового листа,
     F#m6/D#           C#m/G#     G#7 
  Нам сердце исцелит, когда оно томится. 

Припев:
C#m                   F#m7	  			 
Чистые пруды, застенчивые ивы,				 
    H7                      E        D#m7  G#7       
Как девчонки, смолкли у воды. 
C#m      C#m7/H       F#m7   F#m6/D# 
    	Чистые пруды - веков зеленый сон...
   G#7
    	Мой дальний берег детства,                        C#m          	Где звучит аккордеон... 
(аккордеонное соло)
  C#m                 F#m              H7
e|---------|---------|--------|-------|----------------|
H|---4h5---|---------|--------|------4h5p4-4-----------|
G|-6-------|----6/8-8/9-8h9---|----6--|------6-6p4-4---|
D|-------6-|--6------|------7-|--7----|--------------7-|

            Emaj7              Amaj7
e|---------|------4--|-------|-4h5-5h7-7/9-|-75-4h5---|
H|---------|---------|-------|-------------|-----------|
G|-------4-|---------|-------|-------------|---------6-|
D|-7-6h7---|-7-6-----|-------|-------------|-----------|

  F#m                 G#7                    C#m 
e|---------|-----7-5-|-------|-54---------|-----------|
H|-7-------|-4-4-----|-------|-------7p5---|-4h5p4-----|
G|---------|---------|-5-----|-------------|-------6---|
D|---------|---------|-----6-|-----6-----6-|-----------|

И я спешу туда, там льется добрый свет,	        C#m* G#7/C   
И лодки на воде, как солнечные пятна. 		Cdim7 C#m
Отсюда мы с тобой ушли в круженье лет... 	F#m7 F#m6/D# C#m/E
И вот я снова здесь и ты придешь обратно.	F#m6/D# C#m/G# G#7

Припев:--//--//-- 

(переход тональности)   A7 

    Dm                        A7/C#
  Однажды ты пройдешь бульварное кольцо,
     C#dim                Dm 
  И в памяти твоей мы встретимся, наверно.
    Gm7      Gm6/E     Dm/F 
  И воды отразят знакомое лицо,
Gm6/E             Dm/A            A7
  И сердце исцелят    и успокоят нервы.

Припев:
Dm                    Gm7
Чистые пруды, застенчивые ивы,
    C7                      F      Em7 A7
Как девчонки, смолкли у воды.
Dm       Dm7/C         Gm7   Gm6/E 
Чистые пруды - веков зелёный сон
    A7
Мой дальний берег детства,      
Dm    / Dm Gm C7 Fmaj7 Bmaj7 Gm A7 / 
Где звучит аккордеон.

(переход тональности) / G#7/

  У каждого из нас на свете есть места,		C#m* G#7/C
  Что нам за далью лет все ближе, все дороже.	Cdim7 C#m
  Там дышится легко, там мира чистота		F#m7 F#m6/D# C#m/E
  Нас делает на миг счастливей и моложе.	F#m6/D# C#m/G# G#7

Припев:--//--//--  C#m F#m H7 Emaj7 Amaj7 F#m G#7 C#m 


   I                         I                         I
e|---|---|---|---|С#m*    e|---|-x-|---|---| G#7/C  e|---|-x-|---|---| Cdim7
H|---|-x-|---|---|        H|---|---|---|-x-|        H|---|-x-|---|-x-|
G|-x-|---|---|---|        G|-x-|---|---|---|        G|---|-x-|---|---|
X|---|---|---|---|        X|---|---|---|---|        D|---|-x-|---|-x-|
A|---|---|---|-x-|        A|---|---|-x-|---|        A|---|-x-|-x-|---|
X|---|---|---|---|        X|---|---|---|---|        X|---|---|---|---|

   I                         I                        IV
e|---|-x-|---|---|F#m6/D# e|---|---|---|---| C#m/E  e|-x-|---|---|---| C#m7/H
H|---|-x-|---|---|        H|---|-x-|---|---|        H|-x-|-x-|---|---|
G|---|-x-|---|---|        G|-x-|---|---|---|        G|-x-|---|---|---|
D|-x-|---|---|---|        D|---|-x-|---|---|        D|-x-|---|-x-|---|
X|---|---|---|---|        X|---|---|---|---|        A|-x-|---|---|---|
X|---|---|---|---|        X|---|---|---|---|        E|-x-|---|---|-x-|

   I                         I                         I
e|---|---|---|-x-| Emaj7  e|---|-x-|---|-x-| Amaj7  e|---|---|-x-|---| A7/C#
H|---|---|---|-x-|        H|---|-x-|---|---|        H|---|-x-|---|---|
G|---|---|---|-x-|        G|---|-x-|---|---|        G|---|-x-|---|---|
D|---|-x-|---|---|        D|---|-x-|---|---|        D|---|-x-|---|---|
X|---|---|---|---|        A|---|---|---|---|        A|---|---|---|-x-|
X|---|---|---|---|        X|---|---|---|---|        E|---|---|---|---|

  III                        I                         I
e|-x-|---|---|---| C#dim7 e|---|---|-x-|---| Gm6/E  e|-x-|---|---|---| Dm/F
H|-x-|---|-x-|---|        H|---|---|-x-|---|        H|---|---|-x-|---|
G|-x-|---|---|---|        G|---|---|-x-|---|        G|---|-x-|---|---|
D|-x-|---|-x-|---|        D|---|-x-|---|---|        D|---|---|-x-|---|
A|-x-|-x-|---|---|        X|---|---|---|---|        X|---|---|---|---|
X|---|---|---|---|        X|---|---|---|---|        X|---|---|---|---|

   I                        I                          I
e|-x-|---|---|---| Dm7/C  e|---|---|---|---| Fmaj7  e|-x-|---|---|---| Bmaj7
H|-x-|---|---|---|        H|-x-|---|---|---|        H|-x-|---|-x-|---|
G|---|-x-|---|---|        G|---|-x-|---|---|        G|-x-|-x-|---|---|
D|---|---|---|---|        D|---|---|-x-|---|        D|-x-|---|-x-|---|
A|---|---|-x-|---|        X|---|---|---|---|        A|-x-|---|---|---|
X|---|---|---|---|        X|---|---|---|---|        E|-x-|---|---|---|

Тональность:

Это должно быть в ТОП-листе! - Топ-лист композиций



Назад
Рекомендуем посмотреть другие песни исполнителя «Тальков Игорь»:

  • Комменты Fb ()
  • Комменты ВК



Добавить в Избранное Браузера
Сохранить здесь Очистить


x

0


+
-

+
-

-

Авторизация





Зарегистрироваться

M

Дата и время

  • 22:06:39
     

Социальные ссылки


Наши приложения

  • Muzbank App Play Market
  • Muzbank Amazon App