MUZBANK



A MOST COMPLETE BANK OF MUSIC INFORMATION

МУЗЫКАЛЬНО-ИНФОРМАЦИОННЫЙ БАНК







    TTea Party • Let Me Show You The Door (аккорды и текст - chords & lyrics)


    302

    Print

    Видео «Let Me Show You The Door (Tea Party)»

    Видео клипы к песне подбираются автоматически сайтом youtube. Возможны некоторые несоответствия клипов песне.

    ↑ Спрятать рекламу ↑





     
    
    
    Let Me Show You The Door - The Tea Party
    
    Main Riff
    E|---------------------|
    B|---------------------|
    G|-7--7-7-9--9-9-9-9-9-|
    D|-7--7-7-9--9-9-9-9-9-|
    A|-5--5-5-7--7-7-7-7-7-|
    E|---------------------|
    
    Play this after the Main riff
    at the start.
    E|---------------|
    B|---------------|
    G|-9-9-7---------|
    D|-9-9-7-9-7-5-2-|
    A|-7-7-5-9-7-5-2-|
    E|-------9-7-5-2-|
    
    Play these after the main riff
    for the rest of the song.
    E|---------------------------|
    B|---------------------------|
    G|-9-9-7-9--9-9--9-7---------|
    D|-9-9-7-9--9-9--9-7-9-7-5-2-|
    A|-7-7-5-7--7-7--7-5-9-7-5-2-|
    E|-------------------9-7-5-2-|
    
    E|-----------------------------|
    B|-----------------------------|
    G|-9-9-7-9-12-9--9-9-7---------|
    D|-9-9-7-9-12-9--9-9-7-9-7-5-2-|
    A|-7-7-5-7-10-7--7-7-5-9-7-5-2-|
    E|---------------------9-7-5-2-|
    
    Verse
    E|--------------------------------------|
    B|--------------------------------------|
    G|-7-7-9-7--7-7-9-7--------8~--------8~-|
    D|-7-7-9-5--7-7-9-5--7-7-9-----7-7-9----|
    A|-5-5-7----5-5-7-----------------------|
    E|--------------------------------------|
    
    Bridge
    E|-------------------------------------|
    B|-------------------------------------|
    G|-9--------9-------9-------9--9-9-5-6-|
    D|-7--------7-------7-------7--7-7-7-4-|
    A|----5-6-7---5-6-7---5-6-7------------|
    E|-------------------------------------|
    
    Repeat Bridge Then Play
    E|---------|
    B|---------|
    G|-5-6-7-8-|
    D|-5-6-7-8-|
    A|-3-4-5-6-|
    E|---------|
    
    Solo Chords
    E|-------|
    B|-------|
    G|-7-7-9-|
    D|-7-5-9-|
    A|-5---7-|
    E|-------|
    
    Outro
    E|---------------|
    B|---------------|
    G|-9-9-7-------9-|Repeat This.
    D|-9-9-7-9-7-5-7-|
    A|-7-7-5-9-7-5---|
    E|-------9-7-5---|
    
    End With This
    E|----------|
    B|----------|
    G|-7--7-7-9-|
    D|-7--7-7-9-|
    A|-5--5-5-7-|
    E|----------|
     

    Тональность:

    Это должно быть в ТОП-листе! - Топ-лист композиций



    Назад
    Рекомендуем посмотреть другие песни исполнителя «Tea Party»:

    • Комменты Fb ()
    • Комменты ВК



    Добавить в Избранное Браузера
    Сохранить здесь Очистить


    x

    0


    +
    -

    +
    -

    -

    Авторизация





    Зарегистрироваться

    M

    Дата и время

    • 06:54:33
       

    Социальные ссылки


    Наши приложения

    • Muzbank App Play Market
    • Muzbank Amazon App