MUZBANK



A MOST COMPLETE BANK OF MUSIC INFORMATION

МУЗЫКАЛЬНО-ИНФОРМАЦИОННЫЙ БАНК







    TTea Party • Sister Awake Remix (аккорды и текст - chords & lyrics)


    311

    Print

    Видео «Sister Awake Remix (Tea Party)»

    Видео клипы к песне подбираются автоматически сайтом youtube. Возможны некоторые несоответствия клипов песне.

    ↑ Спрятать рекламу ↑





     
    
    
    Sister Awake (Remix) - Tea Party
    
    C G C G C D
    
    Intro/Electric Riff
    |----------------|
    |----------------|
    |---0h3p0--3--5-|
    |-5--------------|
    |-5-0h3p0--3--5-|
    |-5--------------|
    
      Bass Line
    |-----------------------|
    |-----------------------|
    |----------------------.|This Keeps on
    |----------------------.|Repeating
    |-5--------5-7----------|
    |--0-0-0-0-----0-0-0-0--|
    
    
    This is played on a Mandolin
    along with the bass line
    |---------------------------------------------|
    |-7-8-7-8-7-8-7-8-10-8-7-7h8-7-5-4-5-4-5-4-0-|
    |---------------------------------------------|
    |---------------------------------------------|
    |---------------------------------------------|
    |---------------------------------------------|
    
    
    This is not exact but gives u an idea
    just improvise.
    
     Solo Riff 1
    |-12h13p12h13p12--------------------------------|
    |----------------12h13p12h13p12-15-13-12h13p12-|
    |-----------------------------------------------|
    |-----------------------------------------------|
    |-----------------------------------------------|
    |-----------------------------------------------|
    
     Solo Riff 2
    |-12h13-15-12h13-15-12h13-15-16-15-13-12-|
    |-------------------------------------------|
    |-------------------------------------------|
    |-------------------------------------------|
    |-------------------------------------------|
    |-------------------------------------------|
    
       Bridge
    |-----------|
    |-----------|
    |-----------|Repeat
    |-----------|
    |-9-7--10-9-|
    |-----------|
    
    
    This part is played after the
    bridge it is also the ending riff.
    
          Outro
    |----------------|
    |----------------|
    |-0h3-5--0h2-3-|
    |----------------|
    |-0h3-5--0h2-3-|
    |----------------|
     

    Тональность:

    Это должно быть в ТОП-листе! - Топ-лист композиций



    Назад
    Рекомендуем посмотреть другие песни исполнителя «Tea Party»:

    • Комменты Fb ()
    • Комменты ВК



    Добавить в Избранное Браузера
    Сохранить здесь Очистить


    x

    0


    +
    -

    +
    -

    -

    Авторизация





    Зарегистрироваться

    M

    Дата и время

    • 15:57:32
       

    Социальные ссылки


    Наши приложения

    • Muzbank App Play Market
    • Muzbank Amazon App