MUZBANK


МУЗЫКАЛЬНО-ИНФОРМАЦИОННЫЙ БАНК





TTequilaJazzz • Кроме звезд (аккорды и текст - chords & lyrics)


1068

Print

Видео «Кроме звезд (TequilaJazzz)»

Видео клипы к песне подбираются автоматически сайтом youtube. Возможны некоторые несоответствия клипов песне.

↑ Спрятать рекламу ↑






INTRO 4.5X
G|-------------------------------------------------------------|
D|0s2-2-2-2--2-2--3--3---3-2---0---0-0-0---0-0---0-0---0-0---0-|
A|-------------------------------------------------------------|
E|-------------------------------------------------------------|

VERSE part1 x2
G|-------------------------------------------------------------|
D|0---0-0-0---0-0---0-0---0-0---0-2--2-2-2---2-2---2-2--2-2--2-|
A|-------------------------------------------------------------|
E|-------------------------------------------------------------|

G|-------------------------------------------------------------|
D|4---4-4-4---4-4---4-4---4-4--4-3---3-3-3---3-3-7-7---7---7-7-|
A|-------------------------------------------------------------|
E|-------------------------------------------------------------|

VERSE part2 x1
G|-------------------------------------------------------------|
D|-------------------------------------------------------------|
A|5---5-5-5---5-5---5-5---5-5---5-4--4-4-4---4-4-4-4---4---4-4-|
E|-------------------------------------------------------------|

G|-------------------------------------------------------------|
D|-------------------------------------------------------------|
A|3---3-3-3---3-3---3-3---3-3---3-2---2-2-2--2-2-1-1---1---1-1-|
E|-------------------------------------------------------------|

G|-------------------------------------------------------------|
D|0--0-0-0--0-0--0-0---0-0---0-2---2-2-2---2-2---2-2---2-2---2-|
A|-------------------------------------------------------------|
E|-------------------------------------------------------------|

G|-------------------------------------------------------------|
D|4--4-4-4--4-4--4-4---4-4---4-5---5-5-5---5-5---5-5---5-5---5-|
A|-------------------------------------------------------------|
E|-------------------------------------------------------------|

CHORUS x4
G|-------------------------------------------------------------|
D|0--0-0-0---0-0---0-0---0-0---0-2---2-2-2---2-2-3-3---3---3-3-|
A|-------------------------------------------------------------|
E|-------------------------------------------------------------|

Слева - берег, справа - ночь,
Под ногами - ворохи огня.
Дым не может мне помочь,
Он и сам зависит от меня.
Он зависит от того,
Сколько дней и для чего
Мы потратили на этот мост.
После долгого дождя
Нам осталось все,
Но кроме звезд

Сверху - небо, снизу - тень
И по-прежнему не греет дым
Солнцу вмешиваться лень,
Вот и птицы улетят за ним.
И под каждым их крылом
Ветер, посланный огнем,
Будет петь о перемене гнезд.
После долгого пути
Им оставит все,
Но кроме звезд

То ли было, то ли нет -
Это дело предрассветных туч.
Бесполезный лунный свет
Будет прятать в них свой сонный луч.
Он запутаться бы рад
В ста осях координат
И оставить надоевший пост.
За обветренным стеклом -
Песни обо всем,
Но кроме звезд.

Тональность:

Это должно быть в ТОП-листе! - Топ-лист композиций



Назад
Рекомендуем посмотреть другие песни исполнителя «TequilaJazzz»:

  • Комменты Fb ()
  • Комменты ВК



Добавить в Избранное Браузера
Сохранить здесь Очистить


x

0


+
-

+
-

-

Авторизация





Зарегистрироваться

M

Дата и время

  • 04:07:46
     

Социальные ссылки


Наши приложения

  • Muzbank App Play Market
  • Muzbank Amazon App