MUZBANK


МУЗЫКАЛЬНО-ИНФОРМАЦИОННЫЙ БАНК





TThe Cardigans • And then you kissed me (аккорды и текст - chords & lyrics)


111

Print

Видео «And then you kissed me (The Cardigans)»

Видео клипы к песне подбираются автоматически сайтом youtube. Возможны некоторые несоответствия клипов песне.

↑ Спрятать рекламу ↑





Intro:

     C       Em7    Am                                Em
e|---------------------------------------------------------|
B|---------------------------------------------------------|
G|-------0------------2-------2-------2-------2-------0----|
D|-----2---2-----0--------2-------2-------2-------2--------|
A|---3-------0h2----0---0---0---0---0---0---0---0---0------|
E|---------------------------------------------------------|



In verses you play like this (or something in these chords):

     Em       D/F#     G                    C       Em7    Am (as long as need)
e|------------------------------------------------------------------------------|
B|-----------------------------0------------------1-----------------------------|
G|---0---0----2-----0--0-----0-------0----------0------------2-------2-------0--|
D|---------2------0--------0-------0----------2--------0---------2-------2------|
A|-----2--------0--------2-------2----------3-------0h2----0---0---0---0---0----|
E|---0--------2--------3--------------------------------------------------------|


Em      D/F#   G
Man Ive had a few
          C            Em7          Am
But they wouldnt quit blow me like you
      Em         D/F#      G
You gave me your name and sight
       C      Em7      Am
With a halo around my eye


        Em           D/F#    G
And it hits me like never before
      C         Em7      Am
That love is a powerful force
         Em           D/F#        G
Yes it struck me that love is as bored
      C            Em7         Am
So I pushed you a little bit more



Love, youre news to me
Youre a little bit more then I thought youd be
A mow in my well fed lawn
Youre a nightmare beating the dawn

And it hit me like never before
That love is a powerful force
Yes it struck me that love is a sport
So I pushed you a little bit more



Bridge goes like this:

aah...
     D
e|--------------------------------------------------------------|
B|---------3-----1-----0----------------3-----1-----0-----------|
G|-----2-----2-----2-----2-----0----2-----2-----2---------------|
D|---0---0-----0-----0------2/4---0---0-----0-----0------0--2---|
A|-----------------------------------------------------3--------|
E|--------------------------------------------------------------|

Blue, blue...
     D
e|----------------------------------------------------------------|
B|---------3-----1-----0----------------3-----0h1-----0-----------|
G|-----2-----2-----2-----2-----0----2-----2-------2---------------|
D|---0---0-----0-----0------2/4---0---0-----0-------0------0--2---|
A|-------------------------------------------------------3--------|
E|----------------------------------------------------------------|



D
Blue, blue, black and blue
Red blood sticks like glue
True love is cruel love
Red blood say power fuel
Sweet love tasty blood
          C    D
My heart overfloods


        Em D/F# G
So you hit me
          C     Em7     Am
Yeah you hit me really hard
         Em D/F# G
Man you hit me
         C     Em7           Am
Yeah you hit me right in the heart


Lord Ive had my deal
But I never quite knew how it feels
When love makes you wake up soar
With fists that are ready for more


And it hits me that love is a game
Like in war no one can be blamed
Yes it struck me that love is a sport
So I pushed you a little bit more


Blue, blue, black and blue
Red blood sticks like glue
True love is cruel love
Red blood say power fuel
Sweet love tasty blood
My heart overfloods


So you hit me
Yeah you hit me really hard
Baby you hit me, yeah
Yeah you punched me right in the heart
And then you kissed me
And then you hit me
And then you kissed me
And then you hit me


        Em     D/F#       G                    C Em7 Am
Oh you hold me with your violent heartbeat at night
        Em       D/F#       G              C Em7 Am
Oh you strike me with your silence baby tonight
        Em      D/F#       G                  C Em7 Am
Why you hold me with your violence baby come hit me
        Em      D/F#       G           C Em7 Am
Oh you hold me with your violent heartbeat



Finishing like this:

     Am              Em
e|------------------------0---|
B|---0-1/3-5--3\1-0------0----|
G|----------------------0-----|
D|---------------------2------|
A|--------------------2-------|
E|-------------------0--------|


Used Chords:

        EADGBe
C-------x32010
Em------022000
Em7-----020000
Am------x02210
D-------xx0232
D/F#----200232
G-------320003


| /  slide up
| \  slide down
| h  hammer-on

Тональность:

Это должно быть в ТОП-листе! - Топ-лист композиций



Назад
Рекомендуем посмотреть другие песни исполнителя «The Cardigans»:

  • Комменты Fb ()
  • Комменты ВК



Добавить в Избранное Браузера
Сохранить здесь Очистить


x

0


+
-

+
-

-

Авторизация





Зарегистрироваться

M

Дата и время

  • 09:19:36
     

Социальные ссылки


Наши приложения

  • Muzbank App Play Market
  • Muzbank Amazon App