MUZBANK


МУЗЫКАЛЬНО-ИНФОРМАЦИОННЫЙ БАНК





TThe Doors • Five To One (аккорды и текст - chords & lyrics)


764

Print

Видео «Five To One (The Doors)»

Видео клипы к песне подбираются автоматически сайтом youtube. Возможны некоторые несоответствия клипов песне.

↑ Спрятать рекламу ↑





riff 1
E|--------------|
B|--------------|
G|--------------|
D|--------------|
A|--------------|
E|3--5--5--5--5-|

five to one baby, one in five
no one here gets out alive, now
you get yours baby i'll get mine
gonna make it baby if we try

riff 2 (ad lib)
E|------------|
B|------------|
G|9--7--5~7~5-|
D|------------|
A|------------|
E|------------|

the old get old the young get stronger
may take a week, may take longer
they got the guns, but we got the numbers
gonna win, yeah, we're taking over

COME ON!

solo
this solo really kicks. the opening riff was borrowed by
pearl jam and can also be seenin the "alive" solo. Mike
Mccready just moved the riff down on the fretboard
(to start on E).

it is in an Am pentatonic

the start is
E|20^-17-----------------------------------------------------------|
B|---------20^-17--------------------------------------------------|
G|------------------17-19-------17----17--19--19^-19^-19^-17-19-17-|
D|------------------------17-19----19------------------------------|
A|-----------------------------------------------------------------|
E|-----------------------------------------------------------------|

the rest is just playing around with that scale

then back to riff 1

your ballroom days are over baby
night is crawling near
shadows of the evening
crawl across the year
you walk across the floor
with a flower in your hand
trying to tell me no one understand
trading your dollars for a hand full of dimes
gonna make it baby, in our prime

get together 1 more time
with another solo

Тональность:

Это должно быть в ТОП-листе! - Топ-лист композиций



Назад
Рекомендуем посмотреть другие песни исполнителя «The Doors»:

  • Комменты Fb ()
  • Комменты ВК



Добавить в Избранное Браузера
Сохранить здесь Очистить


x

0


+
-

+
-

-

Авторизация





Зарегистрироваться

M

Дата и время

  • 18:21:35
     

Социальные ссылки


Наши приложения

  • Muzbank App Play Market
  • Muzbank Amazon App