MUZBANK


МУЗЫКАЛЬНО-ИНФОРМАЦИОННЫЙ БАНК





TThe Doors • Love Her Madly (аккорды и текст - chords & lyrics)


1174

Print

Видео «Love Her Madly (The Doors)»

Видео клипы к песне подбираются автоматически сайтом youtube. Возможны некоторые несоответствия клипов песне.

↑ Спрятать рекламу ↑





intro:

E|-0-0-0-0-0-0-0-0-0-0---|
B|-1-1-1-1-0-1-1-1-1-0-o-|
G|-2-2-2-2-2-2-2-2-2-2---|
D|-2-2-2-2-2-2-2-2-2-2---|
A|-0-0-0-0-0-0-0-0-0-0-o-|
E|-----------------------|

pre-chorus:

rake all these notes

E|-----0-----0----1----2-|
B|----1-----1----1----3--|
G|---2-----2----2----2---|
D|--2-----2----3----0----|
A|-0-----0---------------|
E|-----------------------|

Chorus fills:

E|-------------------------------|---------------|--------------------|
B|-------------------------------|---------------|--------------------|
G|-7b9-7b9-7p5---5---------------|-7b9-7p5---5---|-7b9-7b9-7p5---5----|
D|-------------7---7-5-----------|---------7---7-|-------------7---7--|
A|---------------------7-6-5-3---|---------------|--------------------|
E|-----------------------------5-|---------------|--------------------|

"All your love...."

E|----------------|------------|
B|-5-7-8-7-5⁄(3)-o|-5-7-8-8/10-|
G|----------------|------------|
D|----------------|------------|
A|--3x-----------o|------------|
E|----------------|------------|

"All your love is gone, so sing a lonely song..."

chords: G D G G G D F F Am

just play an Am chord through the organ solo

solo:

E|-8----8--------8----8--------8-9-10--------8----8--------8----8-|
B|---10---10-10----10---10-10---------10-10----10---10-10----10---|
G|----------------------------------------------------------------|
D|----------------------------------------------------------------|
A|----------------------------------------------------------------|
E|----------------------------------------------------------------|

E|---------8--8----8---------10-|
B|-10-8-10-8----10---10-8-10-10-|
G|------------------------------|
D|------------------------------|
A|------------------------------|
E|------------------------------|






Am
Don`t you love her madly? Don`t you need her badly? Don`t you 
D7 Am
love her ways? Tell me what you say? Don`t you love her madly? 
Am7 F D Am
Want to be her daddy? Don`t you love her face? 
Am E
Don`t you love her as she`s walking out the door? 
Em
Like she did one thousand times before. Don`t you 

D7 Am
love her ways? Tell me what you say don`t you 
Em
love her as she`s walking out the door? 

* D9 Am7 D9 Am7 D9
* All you love all your love all your love 

Am7 D7 Am7 D7 G
all your love all your love is gone, So sing a 
C A D
lonely song of a deep blue dream. Seven horses seem 
E D G E ( On the second time now go down to the Coda)
to be on the 
Am C F D
mark. Oh, don`t you love her ? Don`t you 
Am E Am No Chord *
love her as she`s walking out the door? *


Coda
Am * *
mark. Don`t you *love her madly? Don`t you *



Тональность:

Это должно быть в ТОП-листе! - Топ-лист композиций



Назад
Рекомендуем посмотреть другие песни исполнителя «The Doors»:

  • Комменты Fb ()
  • Комменты ВК



Добавить в Избранное Браузера
Сохранить здесь Очистить


x

0


+
-

+
-

-

Авторизация





Зарегистрироваться

M

Дата и время

  • 20:43:50
     

Социальные ссылки


Наши приложения

  • Muzbank App Play Market
  • Muzbank Amazon App