MUZBANK


МУЗЫКАЛЬНО-ИНФОРМАЦИОННЫЙ БАНК





TThe Doors • Parade (аккорды и текст - chords & lyrics)


471

Print

Видео «Parade (The Doors)»

Видео клипы к песне подбираются автоматически сайтом youtube. Возможны некоторые несоответствия клипов песне.

↑ Спрятать рекламу ↑





G|-------------------------------------------------------------------------|
D|5-6-7-8-7-6-55-6-7-8-7-6-55-6-7-8-7-6---7-----7-5-6-7-8-7-6-55-6-7-8-7-6-|
A|--------------------------------------/7--7--5---------------------------|
E|--------------------------------------------5----------------------------|

G|-----------------------------------------------------------------------------|
D|-55-6-7-88-7-6---7--7---5-6-7-8-7-6-55-6-7-8-7-6-55-6-7-88-7-6-7-------------|
A|---------------/7--7--7------------------------------------------7-3-----035-|
E|---------------------------------------------------------------------5-55----|

G|-------------------------------------------------------------------------|
D|33------3553-55------456787655-6-7-8-7-6-5-6-7-8-7-6-5-6-7-8-7-6---5-----|
A|--53--03----5--543345--------------------------------------------/5--5---|
E|----33-----------------------------------------------------------------3-|

G|--------------------------------------------57--------------------10-109-|
D|-5-6-7-8-7-6-55-6-7-8-7-6-55-6-7-8-7-6--5-67--7---------57-7910-10-------|
A|---------------------------------------5-------3-35-57-7-----------------|
E|-------------------------------------------------------------------------|

B|-10975-----|
G|------75---|
D|--------73-|
A|-----------|
E|-----------|

G|-------------------910-109-10975--------------------------------------------|
D|---------57-7910-10-------------75----------57-7910-10------------------57--|
A|3-35-57-7-------------------------73-35-57-7----------8-87-75-53-35-57-7----|
E|----------------------------------------------------------------------------|

G|------10-9-75------------------------910-109-10975-------|
D|7910---------75------------57-7910-10-------------75-----|
A|---------------7653-35-57-7-------------------------73-5-|
E|---------------------------------------------------------|

G|----------------------------------------------------------------|
D|--------------5------------------5------------------7-75-simile-|
A|7-57--57--57-7-75--7-57--57--57-7-75--7-57--57--57-7-7----------|
E|-7---7---7-------7--7---7---7-------7--7---7---7----------------|

G|---------------------------------------------/99-----------------------------|
D|--------------------------------97---775----7---95----------------97---775---|
A|7-------7-------7-------7---7910----7----7--------7---77-57---7910----7----7-|
E|---77--7---77--7---77--7---7-------------------------7--7----7---------------|

G|----------------------------------------------------------------------------|
D|---5797---775----------------10-------------97---99575---------------10-----|
A|--7------7----7---77575----10--109-7---77710----9-----7---77575----10--1097-|
E|-7---------------7-----7--7-----------7------------------7-----7--7---------|

G|-----------------------------------------------------------|
D|------97---995-------------995-------9----------------7654-|
A|--7910----9----7---7755---9----7---79-97-7-57--57--57-7654-|
E|-7----------------7----7----------7-------7---7---7--------|

Тональность:

Это должно быть в ТОП-листе! - Топ-лист композиций



Назад
Рекомендуем посмотреть другие песни исполнителя «The Doors»:

  • Комменты Fb ()
  • Комменты ВК



Добавить в Избранное Браузера
Сохранить здесь Очистить


x

0


+
-

+
-

-

Авторизация





Зарегистрироваться

M

Дата и время

  • 22:57:43
     

Социальные ссылки


Наши приложения

  • Muzbank App Play Market
  • Muzbank Amazon App