MUZBANK


МУЗЫКАЛЬНО-ИНФОРМАЦИОННЫЙ БАНК





TThe Doors • Riders On The Storm (аккорды и текст - chords & lyrics)


1303

Print

Видео «Riders On The Storm (The Doors)»

Видео клипы к песне подбираются автоматически сайтом youtube. Возможны некоторые несоответствия клипов песне.

↑ Спрятать рекламу ↑





                   Words and Music by The Doors
with vib. effect         B(0.25)
|--------|---------|------|------------|------|---------|------|
|--------|---------|------|------------|------|---------|------|
|--------|---------|------|------------|------|---------|------|
|--------|2---2-0-2|------|2-2-2-0-2-0-|------|---------|------|
|--------|---------|------|-----------2|0-----|0-0-0-3-0|------|
|--------|---------|------|------------|------|---------|-0----|
 Riders on    riders on         in-to this  in-to this world
the storm    the storm        house were born     were thrown
|---------|--------------|-----------|-------------|-----------|
|---------|--------------|-----------|-------------|-----------|
|---------|--------------|0----------|-------------|-----------|
|2-0------|--------------|2----------|-------------|-----------|
|---2-0---|--------------|3----------|-------------|-----------|
|------3-0|--5-----------|-----------|-0-----------|-(0)-------|
       Like a dog    an actor out Riders on     There's a
    without a bone   on loan.   on the storm
Rhy.Fig.1
|------------------------|-----------------|-------------------|
|-0-----0---2-----2--3---|-----3--2----2---|-------------------|
|----0---------0---------|--0-------0-----0|--repeat last-two--|
|------------------------|-----------------|-----------bars----|
|------------------------|-----------------|-------------------|
|------------------------|-----------------|-------------------|

killer on the road, his brain is squirming like a toad. Take

|----------7-7-|8-8---10-10-|-----------|----------------------|
|-5--5-----7-7-|8-8---12-12-|0-0-2---2-3|---3-2---2------------|
|--------------|9-9---11-11-|-0----0----|-0-----0--------------|
|--------------|------------|-----------|----------------------|
|--------------|------------|-----------|----------------------|
|--------------|------------|-----------|----------------------|
 a long holiday       let your            if you
        childern play
(openD)give this man a ride sweet fa(openC)mily will die,
   end Rhy.Fig.1
|----------------------|---------------------------------------|
|-0-----0---2------2--3|-----3---2-----------------------------|
|----0---------0-------|--0------------------------------------|
|----------------------|---------------------------------------|
|----------------------|---------------------------------------|
|----------------------|---------------------------------------|
Gotta love your man.  Yeah.
Guitar solo       B(0.5)             B(0.25)
|----------|-------------0|--0-0---|--------------|------------|
|----------|----------0h2-|0----3-0|--------------|------------|
|-------0--|-------0h2----|--------|2--2-0--------|------------|
|2--2-2---2|----0h2-------|--------|------2-2--0--|------------|
|----------|-0h2----------|--------|-------------2|0-0-3-0-----|
|----------|--------------|--------|--------------|------------|

|-----------------0---|----------|-------------|---2----------2|
|-----------2-0-------|----------|-------------|---3----------3|
|------2-0-----2h4--/4|-2-0----/4|-4-2-0-/4---0|---2----------2|
|-2-0-----2-----------|-----2----|-------------|0--0----------0|
|----2----------------|----------|-------------|---------------|
|---------------------|----------|-------------|---------------|

|----0--|------|------|-------------------|--------------------|
|----1--|-0----|-(0)--|--------0h2---2--3-|-(3)----------------|
|----0--|-0----|-(0)--|--4---4-----0------|--------------------|
|--2----|-2----|-(2)--|----5--------------|--------------------|
|--3----|------|------|-------------------|--------------------|
|-------|------|------|-------------------|--------------------|
Verse2:Girl you
With rhy.Fig.1
gotta love your man
Girl you gotta love your man.
Take him by the hand;
make him understand.
The world on you depends, our life will never end.
Gotta love your man.
Rhy.Fig.2
|----12--12---14--14-|--15--15---14--14------------------------|
|----12--12---14--14-|--15--15---14--14------------------------|
|----12--12---14--14-|--16--16---14--14------------------------|
|--------------------|-----------------------------------------|
|--------------------|-----------------------------------------|
|--------------------|-----------------------------------------|
Play Rhy.Fig2 24 times(use it for a model for improvisation)
|-0-----------|--(0)-------|-------------|---------------------|
|-0-----------|--(0)-------|-------------|---------------------|
|-0-----------|--(0)-------|-------------|---------------------|
|-2-----------|--(2)-------|-------------|---------------------|
|-------------|------------|-------------|---------------------|
|-------------|------------|-------------|---------------------|
Play first two bars of Rhy.Fig1 twice
then play all of Rhy.Fig.1 for final verse.
Guitar solo two:      ~~~~~  B1R
|----------------|-------------------|----|--------------------|
|0---0--2-----2h3|-------------------|----|--------------------|
|--0-------0-----|9/11--9/11-9-7-9/11|----|9/11--11-9-7-9------|
|----------------|-------------------|----|--------------------|
|----------------|-------------------|----|--------------------|
|----------------|-------------------|----|--------------------|
   B(0.5)R    PB_____R
|-----------------|--------------------|-----------------------|
|-----------------|--------------------|-----------------------|
|(9)-7-6--9--(9)/4|-(4)-6-----(6)---4-6|4---2--4-4----4-(4)----|
|-----------------|--------------------|-----------------------|
|-----------------|--------------------|-----------------------|
|-----------------|--------------------|-----------------------|
 B1         B1_________R      B(0.5)________R
|-------|----------------|------------------|------------------|
|-------|----------------|------------------|------------------|
|4---4--|-4--2-------2-4-|-(4)-4--4---2--4--|---(4)-----4------|
|-------|------4---4-----|------------------|------------------|
|-------|----------------|------------------|------------------|
|-------|----------------|------------------|------------------|
       Riders on the storm.
|--------------------|---------------|-------------------------|
|--------------------|---------------|-------------------------|
|/11----9---7----9/11|--(11)--11⁄9--7|(7)---6--7--6----4--2----|
|--------------------|---------------|-------------------------|
|--------------------|---------------|-------------------------|
|--------------------|---------------|-------------------------|
 Riders on the storm.______          Riders on the storm.
         B1_____R              B(1.5)_____R
|-------------------|--------------|---------------|-----------|
|-------------------|--------------|---------------|-----------|
|(2)--4--2----2--4-2|-(2)-4-2-4---4|(4)-2--4-2---4-|(4)----4-2-|
|-----------4-------|--------------|-----------4---|-----------|
|-------------------|--------------|---------------|-----------|
|-------------------|--------------|---------------|-----------|

Тональность:

Это должно быть в ТОП-листе! - Топ-лист композиций



Назад
Рекомендуем посмотреть другие песни исполнителя «The Doors»:

  • Комменты Fb ()
  • Комменты ВК



Добавить в Избранное Браузера
Сохранить здесь Очистить


x

0


+
-

+
-

-

Авторизация





Зарегистрироваться

M

Дата и время

  • 18:13:54
     

Социальные ссылки


Наши приложения

  • Muzbank App Play Market
  • Muzbank Amazon App