MUZBANK


МУЗЫКАЛЬНО-ИНФОРМАЦИОННЫЙ БАНК





TThe Doors • Snake (аккорды и текст - chords & lyrics)


597

Print

Видео «Snake (The Doors)»

Видео клипы к песне подбираются автоматически сайтом youtube. Возможны некоторые несоответствия клипов песне.

↑ Спрятать рекламу ↑





intro riff
verse riff
verse riff
variation

G|--------------|-------------|-------------|
D|--------------|-------------|-------------|
A|---------/53--|---------235-|---------23--|
E|00-77-00----5-|00-77-00-----|00-77-00---3-|

chorus

G|------------------------------------------------|
D|-----------------------------55----235----55----|
A|---------235----------235-00----00-----00----00-|
E|00-77-00-----00-77-00---------------------------|

G|-------------------------------------------------|
D|-235---------------------------------------------|
A|--------------235----------235-22-022-0-0-1h20-0-|
E|-----00-77-00-----00-77-00--------------------2-0|

















Тональность:

Это должно быть в ТОП-листе! - Топ-лист композиций



Назад
Рекомендуем посмотреть другие песни исполнителя «The Doors»:

  • Комменты Fb ()
  • Комменты ВК



Добавить в Избранное Браузера
Сохранить здесь Очистить


x

0


+
-

+
-

-

Авторизация





Зарегистрироваться

M

Дата и время

  • 00:01:41
     

Социальные ссылки


Наши приложения

  • Muzbank App Play Market
  • Muzbank Amazon App