MUZBANK


МУЗЫКАЛЬНО-ИНФОРМАЦИОННЫЙ БАНК





TThe Doors • The End (аккорды и текст - chords & lyrics)


1090

Print

Видео «The End (The Doors)»

Видео клипы к песне подбираются автоматически сайтом youtube. Возможны некоторые несоответствия клипов песне.

↑ Спрятать рекламу ↑





Drop D tuning (E B G D A D)

intro

E|---------------------------------------------------------------|
B|3-------------------3-2h3----3-2h3-----3-2-3s5-5h6p5-3-3---3---|
G|-2---------------------------------2---------------------2-----|
D|-0-------------0----------0----------0-----------------------0-|
A|-0-------------------------------------------------------------|
D|-0---------------0----------0----------------------------------|

E|--------------------------------------------------------|
B|2h3p2p0-3---------------------3s5-5h6p5p3---3-2h3-----3-|
G|----------2---------------0-2---------------------2-----|
D|------------0-----0h4p0-4-----------------0---------0---|
A|--------------0h4---------------------------------------|
D|--------------------------------------------------------|

E|----------------------------------------------------------|
B|--------3-----------3-----2h3-3s5-5-5s6-3---5h6p5p3---3---|
G|----------------------------------------------------------|
D|----0-----0-----------0-0-----------------0---------0---0-|
A|0h4-------------0-----------------------------------------|
D|------0-----0h4---0---------------------------------------|

E|------------------------------------------------------|
B|2h3---3-------------------3-3---2h3---3-2h3---3-2h3---|
G|------------------------------------2-------2-------2-|
D|----0-------0-----------------0-----------------------|
A|--------0h4-----------0-------------------------------|
D|--------------0---0h4---0-----------------------------|

C D
E|----------------------------------|
B|-----------------3-2h3---3----3---|
G|------0----------------2--------2-|
D|--------------0-------------------|
A|0-2-3---3-2-0---------------------|
D|----------------------------------|

D C D
this is the end beatiful friend
this is the end my only friend the end

C G D C G D
of elabrate plans the end of everything that stands the end

C G D C D
no safety or suprise the end ill never look into your eyes again

C D G7 D
can you picture what will be so limitless and free

C D G D C D
desprately in need of some strangers hand in a deperate land

solo
E|----------------------------------------------------------|
B|3----3-3-3s5-5s7-7s8-8s10-10s8-8s10b-10s11-11s12-11-11s10-|
G|2----2-2--------------------------------------------------|
D|0----0-0--------------------------------------------------|
A|0----0-0--------------------------------------------------|
D|0---------------------------------------------------------|

E|------------------------------------------------------------|
B|10s12-12s14-12-10-10s8-7-8s7-10s8-8s7-7-5----5----5s3-3---3-|
G|-------------------------------------------5b6r5--------2---|
D|------------------------------------------------------------|
A|------------------------------------------------------------|
D|------------------------------------------------------------|

D
lost in a roman wilderness of pain
and all the children are insane
waiting for the summer rain
theres danger on the edge of town
ride the kings highway
weird scenes inside the gold mine
ride the kings highway west baby
ride the snake ride the snake
to the lake the ancient lake
the snake is long seven miles
ride the snake hes old and his skin is cold
the west is the best the west is the best
get here and well do the rest
the blue bus is calling us
the blue bus is calling us
driver where you taking us
(spoken)
the killer awoke before dawn
he put his boots on
he took a face from the ancient gallery
and he walked on down the hall
he went to the room were his sister lived
then he paid a visit to his brother
and then he walked on down the hall
and he came to a door
he looked inside
Father yes son
i want to kill you
mother i want to

come on baby take a chance with us
and meet me at the back of the blue bus
this is the end beatiful friend
this is the end my only friend the end
it hurts to set you free youll never follow me
the end of laughter and soft lies
the end of nights we tried to die
this is the end

heres another way to play the intro
tuning (D A G D A D)

E|-------0------------0-----------0---------0h2-----2h3p2p0---0---|
B|----------------------0-----0-----------------0-----------0---0-|
G|-----------6h7----------6h7---------6-h-7-----------------------|
D|0--------0-----0--------------0---0---0---------0-----0---------|
A|--0---------------0---------------------------------------------|
D|----0-----------------------------------------------------------|

E|0---------------0-----0-------------------0h2-------2h3p2p0---0---|
B|------0-----------0---------------------0-----0-------------0---0-|
G|----7---6h7p6p4-----------------------0---------0-----------------|
D|--0-----------------0---0---------0-4-------------0-----0---------|
A|------------------------------0h4---------------------------------|
D|--------------------------0h4-------------------------------------|

E|----0-------0-----------0-------------0---0---------------0h2---2-|
B|--------0-------------------0-----------------0---0---------------|
G|6h7---------------------------------------------------6h7---------|
D|------0---0---------0-----0-------------0---0---0---0-------------|
A|--------------0-0h4---0-------0-----0-------------------------0---|
D|--------------------------------7p5-------------------------------|

E|------2h3---------2h3p2p0---0------------------0---------------0-------|
B|--0---------5---5---------0----0-------0---0---------------0-----------|
G|-----------------------------------6h7---------------------------------|
D|0---0-----0---0---------------0--0-------0---0---------0-----0---0-----|
A|-------------------------------------------------0-0h4---0-------------|
D|-------------------------------------------------------------------0h4-|

E|--------0---0-------0---------------0-------------0-------------0-----|
B|----0-----------0-----------0---0-------------0-----------------------|
G|------------------------6h7-------------6h7-----------6h7-------------|
D|------0---0---0---0---0-------0---0---0-----0---0---0-----0---0-------|
A|--0---------------------------------------------------------------0-2-|
D|0---------------------------------------------------------------------|

E|--------------0-|
B|------3-------0-|
G|----0---0-----7-|
D|--2-----------0-|
A|3---------3-2-0-|
D|----------------|

Тональность:

Это должно быть в ТОП-листе! - Топ-лист композиций



Назад
Рекомендуем посмотреть другие песни исполнителя «The Doors»:

  • Комменты Fb ()
  • Комменты ВК



Добавить в Избранное Браузера
Сохранить здесь Очистить


x

0


+
-

+
-

-

Авторизация





Зарегистрироваться

M

Дата и время

  • 11:56:01
     

Социальные ссылки


Наши приложения

  • Muzbank App Play Market
  • Muzbank Amazon App