MUZBANK


МУЗЫКАЛЬНО-ИНФОРМАЦИОННЫЙ БАНК





TThe Doors • Twentieth Century Fox (аккорды и текст - chords & lyrics)


547

Print

Видео «Twentieth Century Fox (The Doors)»

Видео клипы к песне подбираются автоматически сайтом youtube. Возможны некоторые несоответствия клипов песне.

↑ Спрятать рекламу ↑





A Rhy.Fig.1
E|--------||5--------------------------|5--------------------------|
B|------5-||---5---8-----------------5-|----5---8--------------5---|
G|--5h6---||----------6p5h6------6-----|------------------5h6------|
D|7-------||-----------------7---------|------------5----7---------|
A|--------||---------------------------|---------------------------|
E|--------||---------------------------|---------------------------|
(end Rhy.Fig.1)
E|5-----------------------|5-------------------------||
B|---5---8---------------5|---5---8----------------5-||
G|----------6p5h5-----6---|-------------------5h6----||
D|-----------------7------|-----------5----7---------||
A|------------------------|--------------------------||
E|------------------------|--------------------------||

Verse 1 with Rhy.Fig.1 x2
Well she's fashionably lean, and she's fashionably late.
She'll never rank a scene, she'll never break the date.
A G D F
/ / / / / / / /
But she's no drag just watch the way she walks
Rhy.Fill 1(first time)
E E7
E|-----------------|----------0||
B|---0-0---0-0---0-|-0-----3---||
G|---1-1---1-1---1-|-1---1-----||
D|---2-2---2-2---2-|-2---2-----||
A|-----------------|-----------||
E|-0-----0-----0---|---0-------||
Rhy.Fill 2(second time)
E E7
E|-----------------|--------------0----0----||
B|---0-0---0-0---0-|-0-----3--0-------------||
G|---1-1---1-1---1-|-1---1------1-----------||
D|---2-2---2-2---2-|-2---2------------------||
A|-----------------|------------------------||
E|-0-----0-----0---|---0--------------------||

A G A
/ / / / /
She's a Twentitheth century fox.
A G A
/ / / / /
She's a twentitheth century Fox.

E|-----------|--3--------3--|1-----------|0-----0------0-|
B|-----5-----|----3---3----3|--1--------1|--1--------1---|
G|-----5-----|------4-------|----2----2--|----0----0-----|
D|--7--------|--------------|------3-----|---------------|
A|-----------|--------------|------------|---------------|
E|-----------|--------------|------------|---------------|
No tears no fears no ruined years, no clocks

2nd time to CODA
E|--0------0-----|------0-----0--||---5---5------5--5-|------|
B|----0------0---|--3------------||---5---5----7----5-|------|
G|1-----1------1-|1--------1-----||---6---6--7--------|---6--|
D|---------------|---------------||---7---7-----------|---7--|
A|---------------|---------------||-------------------|------|
E|---------------|---------------||-------------------|------|
She's a Twentieth century fox now yeah
Guitar Solo
B(0.5) B(0.5) B1___R B1____R
E|--8------5--------|--------------------|--------------------|
B|-----------8-----8|--------------------|--------------------|
G|------------------|0-7---(7)5----5----7|-7--5---------------|
D|------------------|-----------7--------|------7--5---7--5---|
A|------------------|--------------------|------------------7-|
E|------------------|--------------------|--------------------|

E|----------------|---------------------|----------------5--8-|
B|----------------|---------------------|--------5--6--7------|
G|----------------|---------------------|5--6--7--------------|
D|----------------|--------------5--6--7|---------------------|
A|-5--7--5--------|------5--6--7--------|---------------------|
E|---------8--7--5|-5--8----------------|---------------------|

B(0.5)R B1 B1__R B(0.5) B(0.5)
E|-5--5/8--8h10-10----(10)|8-10---10-(10)--8--/12|--------12-------12|
B|------------------------|----------------------|--13-------13------|
G|------------------------|----------------------|-------------------|
D|------------------------|----------------------|-------------------|
A|------------------------|----------------------|-------------------|
E|------------------------|----------------------|-------------------|
B(0.5) B(0.5) B1 B1___R
E|-------12---------12-16/17-|17----17----------------------|---------------|
B|-13--------13--------------|----------19-17---------------|---------------|
G|---------------------------|----------------19--(19)h17---|---------------|
D|---------------------------|----------------------------19|17h19--17------|
A|---------------------------|------------------------------|----------19-19|
E|---------------------------|------------------------------|---------------|

Verse 2 Rhy.Fig.1 x2
she's the queen of cool
And she's the lady who waits
Since her mind left school it never hesitates
She won't waste time on elementary talk.

Chorus 2(same music)
'Cause she's a twentieth century fox
She's a twentieth century fox
Got the world locked up inside a plastic box.

CODA..
E|5-------------------5-|-----5--5--5----------|
B|5----------7--7--7--5-|-----5--5--5----7---7-|
G|6----6h5---7--7--7--6-|-----6--6--6----7---7-|
D|7----7-----7--7--7--7-|-----7--7--7----7---7-|
A|-----------5--5--5----|----------------5---5-|
E|----------------------|----------------------|

twentieth century fox now yeah
E|------5---------------5---|---5---------------5|----5-----5--5---|
B|------5--------7----------|---5-------x--------|----5---7----5---|
G|5h6--------5---7---7-----7|6-------5-----7--7--|--6---7------6---|
D|--------------------------|--------------------|7----------------|
A|--------------------------|--------------------|-----------------|
E|--------------------------|--------------------|-----------------|

twentieth century fox. now babe. Twentieth century fox,
E|------5------5----|-----------------------|-----|
B|-----------7----5-|-----------------------|-----|
G|---6-----7------5-|-6-----6----4---4---4--|--6--|
D|------------------|-7-----7----5---5---5--|--7--|
A|------------------|-7-----7----5---5---5--|--7--|
E|------------------|-5-----5----3---3---3--|--5--|
now. she's a Twen-tie-th cen-tu--ry FOX.

-----------------------------------------------------------
Notes:
/ / - my attenpt at rhy slashes
for Rhy.Fig.1 I find it best to hold an A such like:
-----------
| | | x o o5th fr.
| | | o | |
| | o | | |
x x 3 2 1 1

Тональность:

Это должно быть в ТОП-листе! - Топ-лист композиций



Назад
Рекомендуем посмотреть другие песни исполнителя «The Doors»:

  • Комменты Fb ()
  • Комменты ВК



Добавить в Избранное Браузера
Сохранить здесь Очистить


x

0


+
-

+
-

-

Авторизация





Зарегистрироваться

M

Дата и время

  • 15:14:47
     

Социальные ссылки


Наши приложения

  • Muzbank App Play Market
  • Muzbank Amazon App