MUZBANK


МУЗЫКАЛЬНО-ИНФОРМАЦИОННЫЙ БАНК





TTracktor Bowling • Черта (аккорды и текст - chords & lyrics)


1941

Print

Видео «Черта (Tractor Bowling)»

Видео клипы к песне подбираются автоматически сайтом youtube. Возможны некоторые несоответствия клипов песне.

↑ Спрятать рекламу ↑








Tractor Bowling - Черта

E||----------5----4----5----4--|----------5----4----5----4--|
H||-----7----------------------|-----7----------------------|
G||--6-----6----6----6----6----|--6-----6----6----6----6----|
D||----------------------------|----------------------------|
A||----------------------------|----------------------------|
E||----------------------------|----------------------------|

|----------4---------4-------|----------2----------1--|
|-----5---------7---------7--|------3-----------2-----|
|--4-----4----4----4----4----|--2------------1--------|
|----------------------------|------------------------|
|----------------------------|------------------------|
|----------------------------|------------------------|

|----------9----7----5-------|----------5----4----5----4--|
|-----7-------------------9--|-----7----------------------|
|--6-----6----6----6----6----|--6-----6----6----6----6----|
|----------------------------|----------------------------|
|----------------------------|----------------------------|
|----------------------------|----------------------------|

|----------4---------4-------|----------2----------1--||
|-----5---------7---------7--|------3-----------2-----||
|--4-----4----4----4----4----|--2------------1--------||
|----------------------------|------------------------||
|----------------------------|------------------------||
|----------------------------|------------------------||

F#m
Я часто слышу во сне шум прошлых дней,
E D
Пьяный хохот ночей бессонных
F#m
Мы играли в любовь… слезы, боль…
E D
И вновь каждый вечер бегом из дома
F#m E
Спирт и сок, спорт и рок -
D E F#m
Все в этой жизни хотели успеть
F#m E
Но мир жесток, вышел срок:
D C# F#m
Мы у черты, мы боимся взрослеть

F#m G
Два шага до черты
F#m D E
И нам уже не повернуть назад
F#m G
Скажи, что впереди -
F#m D E
Желанный рай или дорога в ад?

Мы не знали тогда, что везде и всегда
Все на свете имело цену
Знали, души бесценны во все времена,
Но пришел новый век на смену
Пущен ток, выжат сок
И за деньги любовь нам себя продает
И уже, забыв о душе,
На небеса кто-то ставит штрих код

Тональность:

Это должно быть в ТОП-листе! - Топ-лист композиций



Назад
Рекомендуем посмотреть другие песни исполнителя «Tracktor Bowling»:

  • Комменты Fb ()
  • Комменты ВК



Добавить в Избранное Браузера
Сохранить здесь Очистить


x

0


+
-

+
-

-

Авторизация





Зарегистрироваться

M

Дата и время

  • 14:28:06
     

Социальные ссылки


Наши приложения

  • Muzbank App Play Market
  • Muzbank Amazon App