MUZBANK


МУЗЫКАЛЬНО-ИНФОРМАЦИОННЫЙ БАНК





UUriah Heep • Wizard (аккорды и текст - chords & lyrics)


1633

Print

Видео «Wizard (Uriah Heep)»

Видео клипы к песне подбираются автоматически сайтом youtube. Возможны некоторые несоответствия клипов песне.

↑ Спрятать рекламу ↑






E|--2--2--32--02-----3----0-------|
B|---3--3---3---3---3----3-3------|
G|----2--2---2---2-0----0---0-----|
D|-0-------------------------2^-0-|
A|----------------3---2-----------|
E|--------------------------------|

E|--2--2--32--02-----3----0---535--|
B|---3--3---3---3---3----3-3-------|
G|----2--2---2---2-0----0---0----0-|
D|-0-------------------------------|
A|----------------3---2------------|
E|---------------------------------|

После этого все играется еще раз боем

He was the wizard of a thous and kings
And I chanced to meet him one night wandering
He told me tales and he drank my wine
Me and my magic man kinda feeling fine
He had a cloak of gold and eyes of fire
And as he spoke I felt a deep desire
To free the world of its fear and pain
And help the people to feel free again
Why don?t we listen to... the voices in our hearts
Cause then I know we?ll find... we?re not so far... apart
Everybody?s got to be happy...everyone should sing
For we know the joy of life... the peace that love can bring
So spoke the Wizard in his mountain home
The vision of his wisdom means we?ll never be alone
And now I will dream of my magic night
And the million silver stars that guide me with their light

Тональность:

Это должно быть в ТОП-листе! - Топ-лист композиций



Назад
Рекомендуем посмотреть другие песни исполнителя «Uriah Heep»:

  • Комменты Fb ()
  • Комменты ВК



Добавить в Избранное Браузера
Сохранить здесь Очистить


x

0


+
-

+
-

-

Авторизация





Зарегистрироваться

M

Дата и время

  • 22:53:56
     

Социальные ссылки


Наши приложения

  • Muzbank App Play Market
  • Muzbank Amazon App