MUZBANK


МУЗЫКАЛЬНО-ИНФОРМАЦИОННЫЙ БАНК





VVenom • Disbeliever (аккорды и текст - chords & lyrics)


405

Print

Видео «Disbeliever (Venom)»

Видео клипы к песне подбираются автоматически сайтом youtube. Возможны некоторые несоответствия клипов песне.

↑ Спрятать рекламу ↑





 




..  - palm mute          /  - slide up to
   - slide down to      ~  - vibrato
 h  - hammer on          b  - bend
 p  - pull off            Suffixes for bend
                          ph - pinch harmonic
                           f - full bend    h - half bend
*  - see comment           r - release      t - tap bend
X  - percussion mute       ~ - vibrato bend
@  - slight palm mute     () - ghost note, sustained note

Tune Gtr to C# (1.5 STEPS DOWN)


Riff A
|--------------------------------------------------------------------|
|--------------------------------------------------------------------|
|--7/9--9--7/9--9-----------7/9--7-9-10------------------------------| 
|--7/9--9--7/9--9--2-2-2-2--7/9--7-9-10--2-2-2-2---------------------| 
|--5/7--7--5/7--7--2-2-2-2--5/7--5-7-8---2-2-2-2---------------------|
|------------------0-0-0-0---------------0-0-0-0---------------------|
|                                                                    |
|--------------------------------------------------------------------|
|--------------------------------------------------------------------|
|--7/9--9--7/9--9-----------7/9--9-----------------------------------| 
|--7/9--9--7/9--9--2-2-2-2--7/9--9--2-2-2-2-2-2-2-2------------------| 
|--5/7--7--5/7--7--2-2-2-2--5/7--7--2-2-2-2-2-2-2-2------------------|
|------------------0-0-0-0----------0-0-0-0-0-0-0-0------------------|

Riff B
|--------------------------------------------------------------------|
|--------------------------------------------------------------------|
|--7/9--9--7/9--9------------7/9--9--7/9--9--------------------------|
|--7/9--9--7/9--9--2-2-2-2---7/9--9--7/9--9--2-2-2-2-----------------| 
|--5/7--7--5/7--7--2-2-2-2---5/7--7--5/7--7--2-2-2-2-----------------|
|------------------0-0-0-0-------------------0-0-0-0-----------------|

Riff C
|--------------------------------------------------------------------|
|--------------------------------------------------------------------|
|--------------------------------------------------------------------| 
|--5-----5--3/5---6--7-----7--5/7---8--------------------------------| 
|--5-5-5-5-----------7-7-7-7-----------------------------------------|
|--3-3-3-3-3----3----5-5-5-5-5----5----------------------------------|

Riff D
|--------------------------------------------------------------------|
|--------------------------------------------------------------------|
|--------------------------------------------------------------------|
|--2-2-2--2-2-2--2-2-2--2-2-2----------------------------------------|
|--2-2-2--2-2-2--2-2-2--2-2-2----------------------------------------|
|--0-0-0--0-0-0--0-0-0--0-0-0----------------------------------------|
 

Тональность:

Это должно быть в ТОП-листе! - Топ-лист композиций



Назад
Рекомендуем посмотреть другие песни исполнителя «Venom»:

  • Комменты Fb ()
  • Комменты ВК



Добавить в Избранное Браузера
Сохранить здесь Очистить


x

0


+
-

+
-

-

Авторизация





Зарегистрироваться

M

Дата и время

  • 01:37:36
     

Социальные ссылки


Наши приложения

  • Muzbank App Play Market
  • Muzbank Amazon App