MUZBANK


МУЗЫКАЛЬНО-ИНФОРМАЦИОННЫЙ БАНК





ВВивальди Антонио • Концерт в D 3-ая часть, Аллегро (аккорды и текст - chords & lyrics)


481

Print

Видео «Концерт в D 3-ая часть, Аллегро (Вивальди Антонио)»

Видео клипы к песне подбираются автоматически сайтом youtube. Возможны некоторые несоответствия клипов песне.

↑ Спрятать рекламу ↑






Allegro
E||--2------2--0------0--2------2--0------0-|
B||--3------3--2------2--3------3--2------2-|
G||-----------------------------------------|
D||--0-------------------0------------------|
A||------------0-------------------0--------|
E||-----------------------------------------|

E|-2------2--2------2--0-----------5-|
B|-3------3--3------3--2-----------7-|
G|-----------------------------------|
D|-0---------0-----------------------|
A|---------------------0-------------|
E|-----------------------------------|

E|-5------5--5------5--7------7--7------7-|
B|-7------7--7------7--7------7--7------7-|
G|----------------------------------------|
D|-0-------------------0---------0--------|
A|-----------5----------------------------|
E|----------------------------------------|

E|-0------0--0------0--5------5--5------5-|
B|-8------8--8------8--5------5--5------5-|
G|----------------------------------------|
D|----------------------------------------|
A|---------------------4---------4--------|
E|-9---------9----------------------------|

E|----------------------------------------|
B|-7------7--7------7--8------8--8------8-|
G|-7------7--7------7--7------7--7------7-|
D|----------------------------------------|
A|----------------------------------------|
E|-7---------7---------7---------7--------|

E|-0------0--5------5--0------0--5------5-|
B|-8------8--7------7--8------8--7------7-|
G|----------------------------------------|
D|----------------------------------------|
A|-0---------0---------0---------0--------|
E|----------------------------------------|

E|-0------0--5------5--0------0--5------5-|
B|-8------8--7------7--8------8--7------7-|
G|----------------------------------------|
D|----------------------------------------|
A|-0---------0---------0---------0--------|
E|----------------------------------------|

E|--------------------5--------5----|
B|--7-----------7--7-----7--7-----7-|
G|--7-------------------------------|
D|--0-------------------------------|
A|----------------------------------|
E|----------------------------------|

E|----7--------7----------------------|
B|-8-----8--8-----8-----8--------8----|
G|-------------------9-----9--9-----9-|
D|------------------------------------|
A|------------------------------------|
E|------------------------------------|

E|-----------5-----5--2-----2--5--0--5-|
B|--7-----7-----5--------3-------------|
G|-----7-------------------------------|
D|-------------------------------------|
A|-------------------------------------|
E|-------------------------------------|

E|-2-----2-------5--7-----7--7-----7-|
B|----3-----3----------8--------8----|
G|-----------------------------------|
D|-----------------------------------|
A|-----------------------------------|
E|-----------------------------------|

E|--0-----0--0-----0--5--2--5--5--2--5-|
B|--------------2----------------------|
G|-----6-------------------------------|
D|-------------------------------------|
A|-------------------------------------|
E|-------------------------------------|

E|-------------------3--0--3--3--0--3-|
B|-3--0--3--3--0--3-------------------|
G|------------------------------------|
D|------------------------------------|
A|------------------------------------|
E|------------------------------------|

E|--------------------2-----2--2-----2-|
B|--2-----2--2-----2-----3--------3----|
G|-----2--------2----------------------|
D|-------------------------------------|
A|-------------------------------------|
E|-------------------------------------|

E|-4------------5-|--4------------5-|
B|-0--------------|-----------------|
G|--------------6-|--4------------6-|
D|-2------------7-|--2------------7-|
A|--------------7-|---------------7-|
E|--------------5-|---------------5-|

E|-4------------5-|-----------0------0--2------2--0------0-|
B|----------------|-7------7---------2--3------3--2------2-|
G|-4------------6-|-7------7--6----------------------------|
D|-2------------7-|-0-------------------0------------------|
A|--------------7-|-----------0-------------------0--------|
E|--------------5-|----------------------------------------|

E|-2------2--2------2--0-----------5-|
B|-3------3--3------3--2-----------7-|
G|-----------------------------------|
D|-0---------0-----------------------|
A|---------------------0-------------|
E|-----------------------------------|

E|-5------5--5------5--7------7--7------7-|
B|-7------7--7------7--7------7--7------7-|
G|----------------------------------------|
D|-0-------------------0---------0--------|
A|-----------5----------------------------|
E|----------------------------------------|

E|-0------0--0------0--5------5--5------5-|
B|-8------8--8------8--5------5--5------5-|
G|----------------------------------------|
D|----------------------------------------|
A|---------------------4---------4--------|
E|-9---------9----------------------------|

E|----------------------------------------|
B|-7------7--7------7--8------8--8------8-|
G|-7------7--7------7--7------7--7------7-|
D|----------------------------------------|
A|----------------------------------------|
E|-7---------7---------7---------7--------|

E|-0------0--5------5--0------0--5------5-|
B|-8------8--7------7--8------8--7------7-|
G|----------------------------------------|
D|----------------------------------------|
A|-0---------0---------0---------0--------|
E|----------------------------------------|

E|-0------0--5------5--0------0--5------5-|
B|-8------8--7------7--8------8--7------7-|
G|----------------------------------------|
D|----------------------------------------|
A|-0---------0---------0---------0--------|
E|----------------------------------------|

E|--------------------5--------5----|
B|--7-----------7--7-----7--7-----7-|
G|--7-------------------------------|
D|--0-------------------------------|
A|----------------------------------|
E|----------------------------------|

E|----7--------7----------------------|
B|-8-----8--8-----8-----8--------8----|
G|-------------------9-----9--9-----9-|
D|------------------------------------|
A|------------------------------------|
E|------------------------------------|

E|-----------5-----5--2-----2--5--0--5-|
B|--7-----7-----5--------3-------------|
G|-----7-------------------------------|
D|-------------------------------------|
A|-------------------------------------|
E|-------------------------------------|

E|-2-----2-------5--7-----7--7-----7-|
B|----3-----3----------8--------8----|
G|-----------------------------------|
D|-----------------------------------|
A|-----------------------------------|
E|-----------------------------------|

E|--0-----0--0-----0--5--2--5--5--2--5-|
B|--------------2----------------------|
G|-----6-------------------------------|
D|-------------------------------------|
A|-------------------------------------|
E|-------------------------------------|

E|-------------------3--0--3--3--0--3-|
B|-3--0--3--3--0--3-------------------|
G|------------------------------------|
D|------------------------------------|
A|------------------------------------|
E|------------------------------------|

E|--------------------2-----2--2-----2-|
B|--2-----2--2-----2-----3--------3----|
G|-----2--------2----------------------|
D|-------------------------------------|
A|-------------------------------------|
E|-------------------------------------|

E|-4------------5------------|--4------------5-|
B|-0-------------------------|-----------------|
G|--------------6------------|--4------------6-|
D|-2------------7------------|--2------------7-|
A|--------------7------------|---------------7-|
E|--------------5------------|---------------5-|

E|-4------------5-|
B|----------------|
G|-4------------6-|
D|-2------------7-|
A|--------------7-|
E|--------------5-|

E|-----------------------------------------|
B|------------0------0--2------2--0------0-|
G|--6------6---------1--2------2--1------1-|
D|--7------7--6----------------------------|
A|--0-------------------0------------------|
E|------------0-------------------0--------|

E|------------------------------------|
B|-2---------------3------3--2------2-|
G|-2------2--------4------4--3------3-|
D|--------4---------------------------|
A|-0---------------2------------------|
E|---------------------------2--------|

E|------------------------------------2-|
B|--3------3--2------2--3---------------|
G|--4------4--3------3--4------4--------|
D|-----------------------------4--------|
A|--2-------------------2---------------|
E|------------2-------------------------|

E|-7-----7--7-----7-----7--5--3--2--0-|
B|----7--------7-----8----------------|
G|------------------------------------|
D|------------------------------------|
A|------------------------------------|
E|------------------------------------|

E|--5--0--5--5--0--5--2--5--3--2--0----|
B|-----------------------------------3-|
G|-------------------------------------|
D|-------------------------------------|
A|-------------------------------------|
E|-------------------------------------|

E|-3--0--3--3--0--3--0----3--2--0-------|
B|---------------------------------3--2-|
G|--------------------------------------|
D|--------------------------------------|
A|--------------------------------------|
E|--------------------------------------|

E|-----2--7--------7--------7--------6-|
B|--3-----------7--------7--------7----|
G|-----------7--------6--------6-------|
D|-------------------------------------|
A|-------------------------------------|
E|-------------------------------------|

E|-7-----------------------0------0-|
B|-0-------------7------7---------2-|
G|---------------7------7--6--------|
D|---------------0------------------|
A|-------------------------0--------|
E|----------------------------------|

E|--2------2--0------0--2------2--2------2-|
B|--3------3--2------2--3------3--3------3-|
G|-----------------------------------------|
D|--0-------------------0---------0--------|
A|------------0----------------------------|
E|-----------------------------------------|

E|-0-----------5--10--10--10--10--10--10-|
B|-2-------------------------------------|
G|---------------------------------------|
D|---------------------------------------|
A|-0-------------------------------------|
E|---------------------------------------|

E|-7--10--9--7--5--3--9--9--9--9--9--9-|
B|-------------------------------------|
G|-------------------------------------|
D|-------------------------------------|
A|-------------------------------------|
E|-------------------------------------|

E|------9--7--5--3--2--7--7--7--7--7--7-|
B|--10----------------------------------|
G|--------------------------------------|
D|--------------------------------------|
A|--------------------------------------|
E|--------------------------------------|

E|----7--5--3--2--0--5--5--5--5--5--5-|
B|-8----------------------------------|
G|------------------------------------|
D|------------------------------------|
A|------------------------------------|
E|------------------------------------|

E|--2--5--3--2--0-----5--5--5--5--5--5-|
B|-----------------3-------------------|
G|-------------------------------------|
D|-------------------------------------|
A|-------------------------------------|
E|-------------------------------------|

E|-2--5--3--2--0-----0--3--2--0-------|
B|----------------3--------------3--2-|
G|------------------------------------|
D|------------------------------------|
A|------------------------------------|
E|------------------------------------|

E|-2------2--0------0--2------2--0------0-|
B|-3------3--2------2--3------3--2------2-|
G|----------------------------------------|
D|-0-------------------0------------------|
A|-----------0-------------------0--------|
E|----------------------------------------|

E|--2--3--5--2--3--0----|
B|--3-----------------3-|
G|--------------------2-|
D|--0-----------------0-|
A|-----------0----------|
E|----------------------|

E|----------------------------------------|
B|-2------2--0------0--2------2--0------0-|
G|-2------2--1------1--2------2--1------1-|
D|----------------------------------------|
A|-0-------------------0------------------|
E|-----------0-------------------0--------|

E|------------------------------------|
B|-2---------------3------3--2------2-|
G|-2------2--------4------4--3------3-|
D|--------4---------------------------|
A|-0---------------2------------------|
E|---------------------------2--------|

E|------------------------------------2-|
B|--3------3--2------2--3---------------|
G|--4------4--3------3--4------4--------|
D|-----------------------------4--------|
A|--2-------------------2---------------|
E|------------2-------------------------|

E|-7-----7--7-----7-----7--5--3--2--0-|
B|----7--------7-----8----------------|
G|------------------------------------|
D|------------------------------------|
A|------------------------------------|
E|------------------------------------|

E|--5--0--5--5--0--5--2--5--3--2--0----|
B|-----------------------------------3-|
G|-------------------------------------|
D|-------------------------------------|
A|-------------------------------------|
E|-------------------------------------|

E|-3--0--3--3--0--3--0--3--2--0-------|
B|-------------------------------3--2-|
G|------------------------------------|
D|------------------------------------|
A|------------------------------------|
E|------------------------------------|

E|-----2--7--------7--------7--------6-|
B|--3-----------7--------7--------7----|
G|-----------7--------6--------6-------|
D|-------------------------------------|
A|-------------------------------------|
E|-------------------------------------|

E|-7-----------------------0------0-|
B|-0-------------7------7---------2-|
G|---------------7------7--6--------|
D|---------------0------------------|
A|-------------------------0--------|
E|----------------------------------|

E|--2------2--0------0--2------2--2------2-|
B|--3------3--2------2--3------3--3------3-|
G|-----------------------------------------|
D|--0-------------------0---------0--------|
A|------------0----------------------------|
E|-----------------------------------------|

E|-0-----------5--10--10--10--10--10--10-|
B|-2-------------------------------------|
G|---------------------------------------|
D|---------------------------------------|
A|-0-------------------------------------|
E|---------------------------------------|

E|-7--10--9--7--5--3--9--9--9--9--9--9-|
B|-------------------------------------|
G|-------------------------------------|
D|-------------------------------------|
A|-------------------------------------|
E|-------------------------------------|

E|------9--7--5--3--2--7--7--7--7--7--7-|
B|--10----------------------------------|
G|--------------------------------------|
D|--------------------------------------|
A|--------------------------------------|
E|--------------------------------------|

E|----7--5--3--2--0--5--5--5--5--5--5-|
B|-8----------------------------------|
G|------------------------------------|
D|------------------------------------|
A|------------------------------------|
E|------------------------------------|

E|--2--5--3--2--0-----5--5--5--5--5--5-|
B|-----------------3-------------------|
G|-------------------------------------|
D|-------------------------------------|
A|-------------------------------------|
E|-------------------------------------|

E|-2--5--3--2--0-----0--3--2--0-------|
B|----------------3--------------3--2-|
G|------------------------------------|
D|------------------------------------|
A|------------------------------------|
E|------------------------------------|

E|-2------2--0------0--2------2--0------0-|
B|-3------3--2------2--3------3--2------2-|
G|----------------------------------------|
D|-0-------------------0------------------|
A|-----------0-------------------0--------|
E|----------------------------------------|

E|--2--3--5--2--3--0----|
B|--3-----------------3-|
G|--------------------2-|
D|--0-----------------0-|
A|-----------0----------|
E|----------------------|

Тональность:

Это должно быть в ТОП-листе! - Топ-лист композиций



Назад
Рекомендуем посмотреть другие песни исполнителя «Вивальди Антонио»:

  • Комменты Fb ()
  • Комменты ВК



Добавить в Избранное Браузера
Сохранить здесь Очистить


x

0


+
-

+
-

-

Авторизация





Зарегистрироваться

M

Дата и время

  • 16:08:13
     

Социальные ссылки


Наши приложения

  • Muzbank App Play Market
  • Muzbank Amazon App