MUZBANK


МУЗЫКАЛЬНО-ИНФОРМАЦИОННЫЙ БАНК





ВВивальди Антонио • Концерт №9 в D (аккорды и текст - chords & lyrics)


495

Print

Видео «Концерт №9 в D (Вивальди Антонио)»

Видео клипы к песне подбираются автоматически сайтом youtube. Возможны некоторые несоответствия клипов песне.

↑ Спрятать рекламу ↑





I - Andante

e||-2-|-2-2-2-5-3-5-5-|-------2-0-2-5-|---------------|
B||-3-|-3-3-3---------|-3-3-3-----2---|-0-0-0-3-2-3-3-|
G||-2-|-2-2-2-----6---|-4-4-4-----2---|-0-0-0-----2---|
D||---|---0-0-----7---|-4-4-4---------|-0-0-0-----4---|
A||---|-----------0---|-2-2-2---------|---------------|
D||-0-|-0-------------|-----------4---|-5-5-5-----0---|

E|---5-0---0-3-2-0-2-5-|-------5---7-5-----0-2-3-2-5-3-2-|
B|-2-----3-------------|-8-7-8---8-----8-7---------------|
G|-2-------------------|---------------------------------|
D|-2-----------0-------|-----------------0-----------0---|
A|-0---4---------------|---------0-----------------------|
E|---------------------|-5-------------------------------|

e|-0-------5-2-5-3-5-5-|-0-5-3-5-5-2-5-3-5-5-|
B|-----------3---------|-2---------3---------|
G|---2-----------------|---------------------|
D|-----------0---------|-----------0---------|
A|-0-0-2-4-0-----------|-0-------------------|
D|---------------------|---------------------|

e|-0-5-3-5-5-2-5-3-2-0-------|-------------2-0---0-|
B|-2-------------------3-2-0-|---3-----2-3-----3-2-|
G|-------------------0-------|-2---0-2-------------|
D|-----------0---------------|---4-------0---------|
A|-0-------------------------|---------0---------0-|
D|---------------------------|---------------------|

E|-2-3-2-0---0-2-3-5-3-2-|-0-----5-3-5-2-3-0-2---3-2-3-|
B|-3-------3-------------|---------------------3-------|
G|-----------------------|---2-------------------------|
D|-0-----------0-2-4-0---|-------------0---------------|
A|-----------4-----------|-0-2-4---0-----------2-------|
E|-----------------------|-----------------------------|

e|-0-2---0---2-0-2---0-------0---0-|
B|-----3---2-------3---2-3-0---3---|
G|---------------------------------|
D|---------------------------------|
A|-4-------0-------2---------------|
D|-------------------------6-------|

e|-----------0---0-2-4-0-2-4-5-2-4-|
B|-2-3-0-2-----3-------------------|
G|---------2-----------------------|
D|-----------------0-------2-------|
A|-0-----------0-------------------|
D|---------------------------------|

E|-5-4-5-7-5-4-5-7-5-4-5-7-5-4-5-7-|
B|---------------------------------|
G|---------------------------------|
D|-7-------6-------4---------------|
A|-------------------------7-------|
E|---------------------------------|

e|-5-4-5-7-5-4-5-7-5-4-5-7-4-5-7-4-|
B|---------------------------------|
G|---------------------------------|
D|-0---------------0-------7-------|
A|---------4-----------------------|
D|---------------------------------|

E|-5---------5-3-2-0-----0-2-3-2-3-|
B|-----0-2-3---------3-2-----------|
G|---2-----------------------------|
D|-------------0-----------0---0---|
A|-0---------------0---0-----------|
E|---------------------------------|

e|-0-----0-2-3-2-3-0-----0-2-3-2-3-|
B|---3-2-------------3-2-----------|
G|---------------------------------|
D|---------0---0-----------0---0---|
A|-0---0-----------0---0-----------|
D|---------------------------------|

E|-0-------0-2-0-----------0---0-|
B|---------------3-2-0-2-3---3---|
G|---2-----------1---------------|
D|---------------2---------------|
A|-0-0-2-4---0-------------------|
E|-------------------------------|

e|-----------0---0-----------2-0---|
B|-3-2-0-2-3---3---3-2-0-2-3-----3-|
G|---------------------------------|
D|-2---------------2---------------|
A|---------------------------------|
D|---------------------------------|

E|-----------5-7-5-3-2-0-2-3-5-3-5-|
B|-2-3-2-0-------------------------|
G|---------2-----------------------|
D|-----------------2---------------|
A|-0-------------------------------|
E|---------------------------------|

e|-3-2-0-2-3-7-5-3-2-0---0-2-3-2-3-|
B|---------------------3-----------|
G|---------------------------------|
D|-----------------0---------------|
A|-4-------------------------------|
D|---------------------------------|

E|-2-0---0-2-5-3-2-0-------0-2-0-2-|
B|-----3-------------3-2-3---------|
G|---------------------------------|
D|---------------------------------|
A|-2---------------4---------------|
E|---------------------------------|

e|-0-------0-3-2-0---2-0-2---2-0-2-|---2-0-2---2-0-2-------2-2-|
B|---3-2-3---------3-------2-------|-3-------2-------3-0---3-3-|
G|---------------------------------|---------------------------|
D|---------------------------------|-----------------------0---|
A|-1---------------2-------1-------|-2-------1-------2-2-4---2-|
D|---------------------------------|---------------------------|

e|-2-3-2-0-0-0-2-0-----|---2-0-------------2-2-|
B|-3-5-3-2-2-2-3-2-3-3-|-3-----3-2-3-2---0-3-2-|
G|-----------------4-4-|-4---------------------|
D|---------------------|-2-------4---------0---|
A|-4-------1-2-------2-|-----4-----------2-----|
D|---------------------|---------------4-------|

E|-2-5-3-2-0-0-0-3-2-0---7-5-|
B|-0-------2-0---------3-----|
G|-0-----------3-------4-----|
D|-------------4---------0---|
A|---------4-----------2-----|
E|---------------------------|

e|-3-2-0---------------2-0-2---0-----|
B|-------3-2-3-2---0-0-------3---2-3-|
G|-----------------------------------|
D|-2-------4-------------------------|
A|-------------------2---------------|
D|---------------4-------------------|

E|-----------------0-3-2-3-0-2---0-|
B|-0-0-2-3-0-0-2-4-------------3---|
G|---------------------------------|
D|---------------------------------|
A|-2-------0-----------------------|
E|-----------------5---------------|

e|-------0-------0-2-5-3-5-2-3-0-2-|
B|-2-2-3---2-2-3-------------------|
G|---------------------------------|
D|-----------------0---------------|
A|-0-------0-----------------------|
D|---------------------------------|

E|-----0-2-----0-2-3-5-7-5-3-5-2-3-|
B|-3-3-----3-2---------------------|
G|---------------------------------|
D|-----------------2-----------0---|
A|-2-------2-----------------------|
E|---------------------------------|

e|-0-2-3-2-0-2---0-----0-----------|
B|-------------3---2-3---3-2-3-0-2-|
G|---------------------------------|
D|---------------------------------|
A|-4-----------2---0---------------|
D|---------------------------------|

E|-----------5-3-2-0-----0-2-3-2-3-|
B|-------------------3-2-----------|
G|-2-------------------------------|
D|---------0---0-----------0---0---|
A|---0-2-4---------0---0-----------|
E|---------------------------------|

e|-0-----0-2-3-2-3-0-----0-2-3-2-3-|-0---5-5-5-3-2-3-3-|
B|---3-2-------------3-2-----------|-------7-7-------5-|
G|---------------------------------|---2---6-4-------4-|
D|---------0---0-----------0---0---|---------0-----2---|
A|-0---0-----------0---0-----------|-0-----0-----------|
D|---------------------------------|-------------------|

E|-3-2-0-2-2-2-0---0-0-|-0---0-------------|
B|-5-------3-3---3---2-|-2-3---3-3-3-2-3-2-|
G|-2-------2-0-------0-|---------4-4-2-----|
D|-------0-------------|-4-------4-2-2-----|
A|-4---------2-----4---|-0-----2-----0-----|
E|---------------------|-----------5-------|

e|---5-3-5-5-0-5-3-5-5-|-2-5-3-5-5-0-5-3-5-5-|
B|-3---------2---------|-3---------2---------|
G|-2-------------------|---------------------|
D|-4-------------------|-0-------------------|
A|-----------0---------|-----------0---------|
D|-0-------------------|---------------------|

e|-2-3-2-0---2-0---0-3-2-0-2-5-|
B|-3-------3-----3-------------|
G|-----------------------------|
D|-0---------0---------0-------|
A|-------------4---------------|
D|-----------------------------|

E|-3-2-3-5-3-7-5-3-2-0-2-3-2-5-3-2-|
B|---------------------------------|
G|---------------------------------|
D|-2---------------0-----------0---|
A|---------0-----------------------|
E|---------------------------------|

e|-0-----0-2-0---2-0-----0-2-0---2-|
B|---3-2-------3-----3-2-------3---|
G|---------------------------------|
D|---------------------------------|
A|-0===============================|
D|---------------------------------|

E|-0-----0-------------------------|
B|---3-2---3-2-0-3-2-0---2-3-2-0-3-|
G|---------------------2-----------|
D|---------------------------------|
A|=0---------------0===============|
E|---------------------------------|

e|-----------------0-----0-2-0---2-|
B|-2-0---2-3-2-0-3---3-2-------3---|
G|-----2---------------------------|
D|---------------------------------|
A|=0---------------0===============|
D|---------------------------------|

E|-3-2-0-2-3-2-3-0-5---5-7-5---5-7-|
B|-------------------8-------8-----|
G|---------------------------------|
D|---------------------------------|
A|=0---------------0---------------|
E|---------------------------------|

e|-5---5-7-5---5-7-5---5-7-5---5-7-|-5-3-2-0-----------2-2-|
B|---8-------8-------8-------8-----|---------3-2-0-2---3-3-|
G|---------------------------------|-----------------2-2-2-|
D|---------------------------------|-------------------0-0-|
A|-0---------------0-------0-------|-0-------------0-------|
D|---------------------------------|-----------------------|

e|-0-0---0-0---5-3-5-5-|-0-5-3-5-5-2-5-3-5-5-|
B|-3---3-2-2-3---------|-2---------3---------|
G|-2-----2-2-2---------|-2---------2---------|
D|-----------4---------|-----------0---------|
A|-------0-0-----------|-0-------------------|
E|-----------0---------|---------------------|

e|-0-5-3-5-5-2-5-3-2-0-------|--------------||
B|-2-----------------0-3-2-0-|---3-----2-3--||
G|-2---------2---------------|-2-----2-2-2--||
D|-----------0---------------|---------2-4--||
A|-0-------------------------|-0-----0-0----||
D|-------------------5-------|---4-5-----0--||

II- Largo

e||-2-2-2-2-2-2-|-3-3-3-3-3-3-|-3-3-2-2-1-1-|-------------|
B||-3-3-3-3-3-3-|-3-3-2-2-2-2-|-3-3-3-3-3-3-|-6-6-5-5-5-5-|
G||-2-2-2-2-2-2-|-0-0-2-2-2-2-|-2-2-2-2-2-2-|-7-7-7-7-6-6-|
D||-------------|-------------|---------0-0-|-9-9-7-7-7-7-|
A||-------------|-----0-0-0-0-|-------------|-----0-0-0-0-|
D||-0-0-0-0-0-0-|-2-2---------|-0-0-0-0-----|-6-6---------|

e|-----------------------------------|
B|-3-7-5-7-----7-5-7-----7-7-8-7-5---|
G|---------7-7---------------------7-|
D|-4-----------------7-7-------------|
A|-------5---5-----5---5---5---------|
D|-0---------------------------------|

E|-------------------------5-------|
B|-5-8-7-8-5-5-8-7-8-----8---8-7-5-|
G|-7-----7---6-----6-------6-------|
D|-7-----7-----------7-7-----------|
A|-----------0-----0---0---0-------|
E|---------------------------------|

e|-2-2-2-2-1-1-|-------------|---------------------------------|
B|-3-3-3-3-3-3-|-6-6-5-5-5-5-|-3-7-5-7-----7-5-7---7-7-8-7-5---|
G|---2-2-2-2-2-|-7-7-7-7-6-6-|---------7-7-------------------7-|
D|-0-------0-0-|-9-9-7-7-7-7-|-4-----------------7-------------|
A|-------------|-----0-0-0-0-|-------5---5-----5-5---5---------|
D|---0-0-0-----|-6-6---------|-0-------------------------------|

e|-------------------------5-------|
B|-5-8-7-8-5-5-8-7-8-----8---8-7-5-|
G|-7-----7---6-----6-------6-------|
D|-7-----7-----------7-7-----------|
A|-----------0-----0---0---0-------|
D|---------------------------------|

E|---5---5-----------------------|
B|-7---8-------7-5-7---0-----0---|
G|-7-------7-7-------4---7-6-7---|
D|-0-----0---0-----0---0-----0---|
A|-----------------------------7-|
E|-------------------------------|

e|-------0-0---------------|-------------------------|
B|---0-0---------0-0-------|-------5-5-----5-7-----7-|
G|-----------------------7-|-7-6-6---6-------7-------|
D|-----------6-6-----------|-0---7-----7-7-----7-7---|
A|-7---7---7---7---7-7-7---|-0---0---0---0---5---5---|
D|-6---6---6---6---6---6---|-------------------------|

e|-----------------0---------------|-------5-5-5-5-7-5-7-5-3---|
B|-5---7-5---7-5-7---3-2-0-2-0-----|-------------------------7-|
G|---7-----7---6-----------------2-|-2-------6---6-----6-------|
D|-------------------0---2---------|---------------------------|
A|-------------0-------------------|-0-0-0---0---0-----0-------|
D|---6-----6-------------------2---|---------------------------|

e|-----0-------0-------0-------0-----5---5-----0-|
B|-8-7---7-8-7---7-8-7---7-8-7---7-8---8---8-7---|
G|-6-------6-------6-------6-------6-----6-------|
D|-----------------------------------------------|
A|-0-------0-------0-------0-------0-----0-------|
D|-----------------------------------------------|

e|---0---0---------------------------------|
B|-7---7---7------0-----0--------0---------|
G|-7-----------11-11-11-11-12-11-12-11-9-7-|
D|-0-------0-0----0-----0--------0---------|
A|-----------------------------------------|
D|-----------------------------------------|

e|-----------------------------------------------|
B|-----------------------------------7---7-------|
G|-9-7-6-7-9-7-6-7-9-7-6-7-9-7-6-7-9---9---9-7-6-|
D|-----------------------------------------------|
A|-9-------9-------9-------9-------9-----9-------|
D|-8-------8-------8-------8-------8-----8-------|

e|---------0-2-0-------2-----0-2-0-----|
B|-3---2-3-------3-0-3---2-3-------3-2-|
G|---4---------------------------------|
D|-4-----------------------------------|
A|-2-----2-------2---2---1-----1-------|
D|-------------------------------------|

E|---------0-2-0-----7-------------|---------2-------7-------|
B|-3---2-3-------3-7-0-----------0-|-0-3-2-0---4-2-0---3-2-0-|
G|---4-----------4-----7-6-7-6-----|-------------------------|
D|---------------0-------4-----4---|-------------------------|
A|-2-----2-----------7-------------|-2-----------------------|
E|---------------------------------|-------------------------|

E|-3-2-0-2-3-2-0-2-3-2-0-2-3-2-0-2-3-5-3-5-3-2-0-|
B|-0-------0-------2-------2-------5-----2-------|
G|-----------------0---------------2-------------|
D|-2-------2-------------------------------------|
A|-----------------0-------0-------0-----0-------|
E|-----------------------------------------------|

e|-2-3-2-3-5-7-0-0-3-2-3-0-0---|
B|-3-----3-------0-----0---0-3-|
G|-----------7---0-----0-------|
D|-0-----0---5-----------------|
A|-----------------------------|
D|-------------------------5---|

E|---------------------------------|
B|-2-------6---5-6-6-6-8-6---5-6-6-|
G|-2-2-2-2-7-7---7---7-----7---7---|
D|---------------------------------|
A|-0---0---------------------------|
E|---------6-----6---6---------6---|

e|-----------------0-1-1-1-3-1---0-1-1-|
B|-6-8-6-5-5---6-----3---3-----3---3---|
G|-7-------6---7-7---0---0---------0---|
D|-----------7-6-----------------------|
A|-0-------0---------------------------|
D|-------------------------------------|

E|-1-0-0---3-2-3-5-3-2-3-5-3-5-3-5-3-2-0-|
B|-3---2---2-------2-------2-----2-------|
G|-2-----2-------------------------------|
D|---------------------------------------|
A|-----0---0-------0-------0-----0-------|
E|---------------------------------------|

e|-2-3-5-3-2-0---------------------|
B|-3-----------3-2-3---------------|
G|---------------------7-----7---6-|
D|-0-----------------4---4---------|
A|---------4-------2---0---7---7---|
D|-------------------------6---7---|

e|---------------------------------------0-2-3-|
B|-3-2-3-3-3-2-3-3-3-2-3-3-3-2-3-3-3-2-3-------|
G|---------------------------------------------|
D|-4-------0-----------------------------------|
A|-----------------4-------4-------2-------2---|
E|-0-------------------------------------------|

e|---------------------------------------0-2-3-5-7-|
B|-3-2-3-3-3-2-3-3-3-2-3-3-3-2-3-3-3-2-3-----------|
G|-------------------------------------------------|
D|-4-------0---------------------------------------|
A|-----------------4-------4-------2-------2-------|
D|-0-----------------------------------------------|

e|---------------------------------------0-----5-7-|
B|-3---3-3-3-2-3-3-3-2-3-3-3-2-3-3-3-2-3---7-8-----|
G|---6---------------------------------------------|
D|-4-----------------------------------------------|
A|-0-------0---------------------------------------|
D|-----------------5-------5-------4-------4-------|

e|-------7-------7-------5-------5-------------0---|
B|---------------------------------------8---------|
G|-7-6-7---7-6-7---7-6-7---7-6-7---7-6-7---6-7---6-|
D|-------------------------------------------------|
A|-----------------0-------0-------0-------0-------|
D|-5-------5---------------------------------------|

e|---2-2-2-2-2-|-3-3-3-3-3-3-|-3-3-2-2-2-2-|-0-0-0-0-0-0-|---||
B|-3-3-3-3-3-3-|-3-3-2-2-2-2-|-3-3-3-3-3-3-|-3-3-3-3-2-2-|-3-||
G|---2-2-2-2-2-|-0-0-2-2-2-2-|-2-2-2-2-2-2-|-0-0-2-2-2-0-|-2-||
D|-0-----------|-------------|---------0-0-|-------------|-4-||
A|-------------|-----0-0-0-0-|-------------|-----0-0-0-0-|---||
D|---0-0-0-0-0-|-2-2---------|-0-0-0-0-----|-5-5---------|-0-||

III- Allegro

e|-5-2-3-5-|-5-2-3-5-|-5-7-5-7-5-|-3-2-0-2-3-|-3-0-2-3-|
B|-7-3-5-7-|-7-3-5-7-|-7-8-7-8-7-|-5-3-2-3-5-|-5-2-3-5-|
G|---------|---------|-----------|-----------|---------|
D|---------|---------|-----------|-----------|---------|
A|---------|---------|-----------|-----------|---------|
D|---------|---------|-----------|-----------|---------|

E|-3-0-2-3-|-3-5-3-5-3-|-2-0-2-3-|-5-5-5-5-5-5-|-5-5-5-5-5-5-|
B|-5-2-3-5-|-5-7-5-7-5-|-3-2-3-5-|-7-7-7-7-7-7-|-7-7-7-7-7-7-|
G|---------|-----------|---------|-------------|-4-4-4-4-4-4-|
D|---------|-----------|---------|-0-0-0-0-0-0-|-0-0-0-0-0-0-|
A|---------|-----------|---------|-------------|-------------|
E|---------|-----------|---------|-------------|-------------|

e|-3-3-3-3-3-3-|-3-3-3-3-2-2-|-0-0-0-0-0-0-|-2-----------|
B|-5-5-5-5-5-5-|-2-2-2-2-3-3-|-3-3-2-2-2-2-|-------------|
G|-4-4-4-4-4-4-|-2-2-2-2-2-2-|-4-4-2-2-2-2-|-2-2-2-2-2-2-|
D|-2-2-2-2-2-2-|---------0-0-|-5-5---------|-4-----------|
A|-------------|-0-0-0-0-----|---------0-0-|-------------|
D|-------------|-------------|-------------|-0-----------|

e|-------0-2-0---|-0-----------|-0---0-2-3-5-3-2-0-|
B|-3---3-------3-|-------------|-------------------|
G|---2-----------|---2-2-2-2-2-|---2---------------|
D|-0-------------|-------------|-------------------|
A|---------------|-4-----------|-0-----------------|
D|---------------|-------------|-------------------|

e|-2---------0-2-3-5-2-|-0-5-4-5-0-0-2-|-0-5-4-5-0-0-2-|
B|-----0-2-3-----------|-----------0---|-2---------0---|
G|---2-----------------|-----------1---|-2---------1---|
D|-0-------------------|---------------|---------------|
A|---------------------|-0-------------|---------------|
D|---------------------|---------------|---------------|

E|-0-------|-----------|---0-0-0-0-0-|-2-2-2-2-2-2-|
B|-2-3-2-0-|-2-3-0-----|---2-2-2-2-2-|-5-5-5-5-5-5-|
G|-2-------|---------2-|-2-2-2-2-2-2-|-2-2-2-2-2-2-|
D|---------|-0---2-----|-------------|-0-0-0-0-0-0-|
A|-----0---|-----------|-0-0-0-0-0-0-|-------------|
E|---------|-------2---|-------------|-------------|

e|-2-2-2-2-2-2-|-4-4-4-4-5-5-|-5-5-4-4-3-3-|-5---5-5-5-5-|
B|-3-3-3-3-3-3-|-3-3-3-3-2-2-|-3-3-3-3-3-3-|-2-----------|
G|-2-2-2-2-2-2-|-4-4-4-4-2-2-|-4-4-4-4-4-4-|-2-2---------|
D|-0-0-0-0-0-0-|-2-2-2-2-----|-0-0-2-2-----|-------------|
A|-------------|---------0-0-|-------------|-0-----------|
D|-------------|-------------|---------2-2-|-------------|

e|-5---5-5-5-7-5-3-2-|-3---3-3-3-3-|-3---3-3-3-5-3-2-0-|
B|-------------------|-------------|-------------------|
G|---2---------------|---2---------|---2---------------|
D|-------------------|-------------|-------------------|
A|-0-----------------|-0-----------|-0-----------------|
D|-------------------|-------------|-------------------|

e|-2---2-2-2-3-2-0---|-0---0-0-0-2-0-----|-2---2-2-2-3-2-0---|
B|-----------------3-|---------------3-2-|-----------------3-|
G|---2---------------|---2---------------|---2---------------|
D|-0-----------------|-------------------|-0-----------------|
A|-------------------|-0-----------------|-------------------|
D|-------------------|-------------------|-------------------|

E|-0-----------|-------------|---------0-0-|-0-----0-2-2-|
B|-------0-----|---0-0-2-3-3-|-3-2-2-3-----|---3-3-------|
G|---2-2---5-5-|-5-----------|-------------|-------------|
D|-------------|-------------|-------------|-------------|
A|-0-----------|-------------|-0-------1---|-2-------2---|
E|---------4---|-5-------6---|-------------|-------------|

e|-3-0-0-----3-|-3-0-0-------|---3-2-0-----|---7-----------|
B|-------1-1---|-------1-1---|---------3---|-------------0-|
G|-------------|-----------3-|-3-------4-6-|-7---6-7-6-----|
D|-2-----------|-2-----------|-4-------5---|-----4---------|
A|-------------|-------------|-------------|-7-------------|
D|-------------|-------------|-------------|-----------4---|

e|---2---2-----|-----------0-|---------7-5-|-3-0---0-5-3-|
B|-0---3---0-3-|-2-------2---|-3-2-0-7-----|-----2-------|
G|-------------|---3---3-----|-------------|-------------|
D|-------------|-----4-------|---------0---|-2-----------|
A|-2-------2---|-1-------1---|-2-----------|-----0---4---|
D|-------------|-------------|-------------|-------------|

e|-2-0---2-3-2-|-0-----0-2-0-|---------7---|-------------|
B|-----3-------|---2---------|-3-2-0-7---7-|-9-6-------0-|
G|-------------|-----3-------|-------------|-----6-7-6---|
D|-0-----------|-------------|---------9---|-------------|
A|---------2---|-4-------1---|-2-----------|-8-------8---|
D|-------------|-----4-------|-------------|-------------|

e|---2---2---2-|---2---2---2-|---2---2---2-|---2---2---2-|
B|-------------|-0---0---0---|-2---2---2---|-3---3---3---|
G|-2---2---2---|-1-----------|-2-----------|-4-----------|
D|-4-----------|-------------|-------------|-------------|
A|-------------|-------------|-------------|-------------|
D|-------------|-------------|-------------|-------------|

E|---2---2---2-|-------------|---2---2---1-|
B|-------------|---7---7---7-|-2---2---2---|
G|-2---2---2---|-4---4---4---|-------------|
D|-------------|-------------|-------------|
A|-------------|-------------|-4-------4---|
E|-4-----------|-6-----------|-------------|

e|-----2-------2-------0---|-------------------------|
B|-------------------------|-----4-------4-------4---|
G|---3---3---3---3---3---3-|---4---4---4---4---4---4-|
D|---------4-------4-------|-------------------------|
A|-------------------------|-2-------2-------0-------|
D|-4-----------------------|-------------------------|

e|-----0-------0-----------|-------------------------|
B|---0---0---0---0-----3---|-----2-------2-------2---|
G|-------------------4---4-|---2---2---2---2---2---2-|
D|-------------------------|-------------------------|
A|-------------------------|-0-------0---------------|
E|-6-------6-------6-------|-----------------5-------|

e|-------------------------|-------------------------|
B|-----3-------3-------3---|-----3-------3-------3---|
G|---2---2---2---2---2---2-|---4---4---4---4---4---4-|
D|-------------------------|---------5---------------|
A|-------------------------|-------------------------|
D|-4-------4-------4-------|-5---------------5-------|

e|-----0-------0-------0---|-----0-------0-------0---|
B|---0---0---0---0---0---0-|---2---2---2---2---2---2-|
G|-------------------------|---------2---------------|
D|---------6---------------|-------------------------|
A|-------------------------|-0---------------0-------|
D|-6---------------6-------|-------------------------|

e|-----2-------2-------2---|-----2-------2-------2---|
B|---2---2---2---2---2---2-|---3---3---3---3---3---3-|
G|---------3---------------|---------4---------------|
D|-------------------------|-------------------------|
A|-1---------------1-------|-2---------------2-------|
D|-------------------------|-------------------------|

E|-----3-------3-------3---|-------------|-------------|
B|---3---3---3---3---3---3-|-2-----0-----|---0-0-2-3-3-|
G|---------4---------------|---2-2---5-5-|-5-----------|
D|-------------------------|-------------|-------------|
A|-2---------------2-------|-0-----------|-------------|
E|-------------------------|---------4---|-5-------6---|

e|---------0-0-|-0-----0-2-2-|-3-5-3-2-0---|-------------|
B|-3-2-2-3-----|---3-3-------|-0---------3-|-2-----0-----|
G|-------------|-------------|---------1---|---2-2---5-5-|
D|-------------|-------------|-2-----------|-------------|
A|-0-------1---|-2-------2---|-------------|-0-----------|
D|-------------|-------------|-------------|---------4---|

e|-------------|---------0-0-|-0-----0-2-2-|-3-5-3-2-0---|
B|---0-0-2-3-3-|-3-2-2-3-----|---3-3-------|-0---------3-|
G|-5-----------|-------------|-------------|---------1---|
D|-------------|-------------|-------------|-2-----------|
A|-------------|-0-------1---|-2-------2---|-------------|
D|-5-------6---|-------------|-------------|-------------|

e|-------------|-----3---5-0-|-1-------------|---5-5-5-5-5-|
B|-2---3---5---|-6-----------|---3-2-3-2---3-|-3-7-7-7-7-7-|
G|---2---2---2-|---2---2-----|---0-2---------|-------------|
D|-----3-------|-0-----------|-0-------------|-0-0-0-0-0-0-|
A|-0-------4---|-----4---0---|-----------0---|-------------|
D|-------------|-------------|---------------|-------------|

E|-5-5-5-5-5-5-|-3-3-3-3-3-3-|-3-----------|-3-----------|
B|-7-7-7-7-7-7-|-5-5-5-5-5-5-|-2-------2---|-2-------2---|
G|-4-4-4-4-4-4-|-4-4-4-4-4-4-|-2-2-2-2---2-|-2-2-2-2---2-|
D|-0-0-0-0-0-0-|-2-2-2-2-2-2-|-------------|-------------|
A|-------------|-------------|-0-----------|-0-----------|
E|-------------|-------------|-------------|-------------|

e|-3-----------|-1-------1-0-|-------------|
B|-2-------2---|---3-2-3-----|-6-------6-5-|
G|-2-2-2-2---2-|-------------|---7-6-7-----|
D|-------------|-0---0---0---|-------------|
A|-0-----------|-------------|-------------|
D|-------------|-------------|-6---6---6---|

e|-----0-------0-------0---|-----0-------0-------0---|
B|---6---6---6---6---6---6-|---5---5---5---5---5---5-|
G|---------7-------7-------|---------7-------7-------|
D|-------------------------|-------------------------|
A|-------------------------|-------------------------|
D|-6-----------------------|-6-----------------------|

e|-----0-------0-------0---|-----------0-----5-7-5-7-|
B|---3---3---3---3---3---3-|-----0-------7-8---------|
G|---------4-------4-------|-6-----6-7---------------|
D|-------------------------|---7---------------------|
A|-------------------------|-0-----------------------|
D|-6-----------------------|-------------------------|

E|-5---------0-----5-7-5---|---0-----------|---5-5-5-5-5-|
B|-----0-------7-8-------8-|-7---3-2-3---2-|-3-7-7-7-7-7-|
G|-------6-7---------------|---------------|-------------|
D|---7---------------------|-0---------2---|-0-0-0-0-0-0-|
A|-0-----------------------|-----------0---|-------------|
E|-------------------------|---------------|-------------|

e|-5-5-5-5-5-5-|-3-3-3-3-3-3-|-3-3-3-3-----|-------------|
B|-7-7-7-7-7-7-|-5-5-5-5-5-5-|-5-5-5-5-6-6-|-5-5-5-5-6-6-|
G|-4-4-4-4-4-4-|-4-4-4-4-4-4-|-6-6-6-6-7-7-|-6-6-6-6-7-7-|
D|-0-0-0-0-0-0-|-2-2-2-2-2-2-|-------------|---------6-6-|
A|-------------|-------------|-0-0-0-0-----|-0-0-0-0-----|
D|-------------|-------------|---------6-6-|-------------|

e|-------------|-0-0-0-0-0-0-|---2-2-2-2-2-|-0-0-0-0-0-0-|---||
B|-5-5-5-5-6-6-|-3-3-2-2-2-2-|-3-3-3-3-3-3-|-3-3-2-2-2-2-|-3-||
G|-6-6-6-6-7-7-|-4-4-2-2-2-2-|-2-2-2-2-2-2-|-4-4-2-2-2-2-|-2-||
D|-7-7-7-7-7-7-|-5-5---------|-4-----------|-------------|-4-||
A|---------5-5-|---------0-0-|-------------|-----0-0-0-0-|---||
D|-------------|-------------|-0-0-0-0-0-0-|-5-5---------|-0-||

Тональность:

Это должно быть в ТОП-листе! - Топ-лист композиций



Назад
Рекомендуем посмотреть другие песни исполнителя «Вивальди Антонио»:

  • Комменты Fb ()
  • Комменты ВК



Добавить в Избранное Браузера
Сохранить здесь Очистить


x

0


+
-

+
-

-

Авторизация





Зарегистрироваться

M

Дата и время

  • 09:38:12
     

Социальные ссылки


Наши приложения

  • Muzbank App Play Market
  • Muzbank Amazon App