MUZBANK


МУЗЫКАЛЬНО-ИНФОРМАЦИОННЫЙ БАНК





ВВопли Видоплясова • Dancez (аккорды и текст - chords & lyrics)


617

Print

Видео «Dancez (Вопли Видоплясова)»

Видео клипы к песне подбираются автоматически сайтом youtube. Возможны некоторые несоответствия клипов песне.

↑ Спрятать рекламу ↑






1:

Lushu sa kuch il kazdy za nij dala niue  (без музыки)

Проигрыш:
A|---------------|
E|-0-3-0-3-0-0-0-|

Dadhava jor somfa tuger dadhava er

Проигрыш:
A|-------------------|
E|-0-3-0-3-0-0-0-3-0-|

Ilia de fur deran de carlovido

Проигрыш:
A|-----|
E|-3-0-|

ibian lecho unso danceo clup... nusia num

Припев:
      E  G  A
Dancez
     A    E  G  A
Da-da dancez
         A    E  G  A
Da-da-da dancez
     E  G  A
Dancez

2:

Unsu ra belle dudlia smene (без музыки)

Проигрыш:
A|---------------|
E|-3-5-3-5-3-5-3-|

Ilia beku de sontimore dezi de

Проигрыш:
A|--------------------|
E|-0-3-33-55-33-55-33-|

(мерное постукивание по гитаре_______________________________)
Onep tondone shvendi mon scho... un dance hole ban zas...
obano calo zano...

Припев:

      E   G    A
Dancez
     A   E   G    A
Dn-dn dancez
     A    E   G    A
Da-da dancez
     E   G   A
Dancez

Проигрыш:
E|-0---3---5-|
B|-0---3---5-|
G|-1---4---6-|   - 4раза
D|-2---5---7-|
A|-2---5---7-|
E|-0---3---5-|

Припев:
E|-0-----3---5-|
B|-0-----3---5-|
G|-1-----4---6-|
D|-2-----5---7-|
A|-2-----5---7-|
E|-0-----3---5-|
Dancez             -  4 раза

A|---------|
E|-7-6-5-4-|

E|-0-----3---5-|
B|-0-----3---5-|
G|-1-----4---6-|
D|-2-----5---7-|
A|-2-----5---7-|
E|-0-----3---5-|

Dancez             - 4 раза
(постукивание по гитаре)
Hm,hm,hm madam

Проигрыш:
D|-3-3-3-3-0-3-0-7-7-5-2-| - 4раза

E|-------0------------3------------0---------|
B|-----0---0-------0---0-------2---2---------|
G|---1-------1---0-------0---2-------2-------|
D|-------------------------------------------|
A|----------------------------0--------------|
E|-0------------3--------------------------0-|


Тональность:

Это должно быть в ТОП-листе! - Топ-лист композиций



Назад
Рекомендуем посмотреть другие песни исполнителя «Вопли Видоплясова»:

  • Комменты Fb ()
  • Комменты ВК



Добавить в Избранное Браузера
Сохранить здесь Очистить


x

0


+
-

+
-

-

Авторизация





Зарегистрироваться

M

Дата и время

  • 14:15:19
     

Социальные ссылки


Наши приложения

  • Muzbank App Play Market
  • Muzbank Amazon App