MUZBANK


МУЗЫКАЛЬНО-ИНФОРМАЦИОННЫЙ БАНК





WWarlock • All We Are (аккорды и текст - chords & lyrics)


875

Print

Видео «All We Are (Warlock)»

Видео клипы к песне подбираются автоматически сайтом youtube. Возможны некоторые несоответствия клипов песне.

↑ Спрятать рекламу ↑





All we are
All we are, we are
We are all, all we need
All we are
All we are, we are
We are all, all we need
There′s beauty in the heart of the beast
Fear behind the eyes of the thief
I know you know we′re all incomplete
Let′s get together and let′s get some relief

All we are
All we are, we are
We are all, all we need
All we are
All we are, we are
We are all, all we need

Stronger than a mountain of steel
Faster than hell on wheels
We′ve got we′ve got all the power we need
Let′s build a playground on this old battlefield

All we are
All we are, we are
We are all, all we need
All we are
All we are, we are
We are all, all we need

Now we′re stronger
We no longer want you bringin′ us down
We′ve got the magic
So we′re gonna spread the magic around - yeah!

Now we′re stronger
We no longer want you pushin′ us

All we are
All we are, we are
We are all, all we need
All we are
All we are, we are
We are all, all we need

All we are
All we are, we are
We are all, all we need
All we are
All we are, we are
We are all, all we need

All we are -
We are all, all we need
All we are -
We are all, all we need


/Guitar tab/


Tuning: 1/2 step down


Intro
Riff 1 (guitar 1)

                                  PM PM PM PM PM PM   PM        
D#||------------------------|------------------------|-------------------------|
A#||------------------------|------------------------|-------------------------|
F#||-------------7-----6----|------------------------|--------------7-----6----|
C#||----4--7--4--7--4--6--4-|--L---------------------|-----4--7--4--7--4--6--4-|
G#||----4--7--4-----4-----4-|--L---------------------|-----4--7--4-----4-----4-|
D#||----------------------2-|--L----2--2--2--2--2--2-|--2--------------------2-|


       PM PM PM PM         
----------------------------|--------------------------|
----------------------------|--------------------------|
-------------------9g11--9--|--L-----------7-----6-----|
--L----------------9g11--9--|--L--4--7--4--7--4--6--4--|
--L-----------------7g9--7--|--L--4--7--4-----4-----4--|
--L----2--2--2--2-----------|-----------------------2--|


       PM PM PM PM PM PM    PM      
-------------------------|--------------------------|
-------------------------|--------------------------|
-------------------------|--------------7-----6-----|
--L----------------------|-----4--7--4--7--4--6--4--|
--L----------------------|-----4--7--4-----4-----4--|
--L----2--2--2--2--2--2--|--2--------------------2--|


       PM PM PM PM                                                           
-----------------------------|----------------------|
-----------------------------|----------------------|
-------------------9g11--9~--|----------------------|
--L----------------9g11--9~--|--L-------------------|
--L-----------------7g9--7~--|--L-------------------|
--L----2--2--2--2------------|---------------14\----|




Intro (guitar 2)

---------------------------|---------------------|
---------10--12b--L--------|---------------------|
-----11--------------------|--11~----------------|
---------------------------|---------------------|
---------------------------|---------------------|
---------------------------|---------------------|

  
-------------------------|--------------------------|-----------------------|
---------10----9---------|--------------10--12br----|--L--L------------17b--|
--L---------------9--11--|--L--L--------------------|-----------------------|
-------------------------|--------------------------|-----------------------|
-------------------------|--------------------------|-----------------------|
-------------------------|--------------------------|-----------------------|





Riff 2 (verse) x2
                      
---------------------|-------------------|
---------------------|-------------------|
------------------7--|--L----------------|
--4------------L--7--|--L----------------|
--4------------L--5--|--L----------------|
--2------------L-----|-------------------|

    
-------------------|--------------------------|
-------------------|--------------------------|
--2----------------|--9--9-----11--L----------|
--2----------------|--9--9-----11--L----------|
--0----------------|--7--7------9--L----9\----|
-------------------|--------------------------|



                                    

Riff 3 (chorus) x2

			   PM    PM PM    
------------------------|----------------------------|
------------------------|----------------------------|
-------9----11----------|--------------9--11--11--9--|
--4----9----11----------|-----4--------9--11--11--9--|
--4----7-----9----------|-----4--------7---9---9--7--|
--2---------------2--2--|--2--2--2--2----------------|


                  PM PM        
------------------------|---------------------------|
-------10---------------|---------------------------|
--9-----9----9----------|--9--9-----11--L-----------|
--9-----7----9----------|--9--9-----11--L-----------|
--7-----7----7----7--7--|--7--7------9--L-----------|
------------------------|--------------------21\----|




Bridge

-------------------|-------------------|---------------------------|
-------------------|-------------------|---------------------------|
--7----------------|--L----------------|---------------------6-----|
--7----------------|--L----------------|-----4--2--4----x-4--6--4--|
--5----------------|--L----------------|-----4--2--4----x-4-----4--|
-------------------|-------------------|---------------------------|

             
---------------------------|-------------------|-------------------|
---------------------------|-------------------|-------------------|
---------------------6-----|--7----------------|--L----------------|
-----4--2--4----x-4--6--4--|--7----------------|--L----------------|
-----4--2--4----x-4-----4--|--5----------------|--L----------------|
---------------------------|-------------------|-------------------|

     
-------------------|---------------------|
-------------------|---------------------|
--6----------------|--L------------------|
--6----------------|--L------------------|
--4----------------|--L--------7----7----|
-------------------|-----------5----4----|




Solo

        H              Q.        E    Q     E   E   
--------------------|-------------------------------|
--------------------|--17br------17b~--L------------|
--------14br--------|-----------------------14------|
--------------------|---------------------------16--|
--------------------|-------------------------------|
--------------------|-------------------------------|


                                     /1\   /1\   /1\           
   Q       E   E    Q     E   E      Q     Q     Q     E   E   
----------14---------------------|----------------------------|
--17br--------17b~--L------------|----------------------------|
-------------------------14--16--|--16-----L-----L----16--14--|
---------------------------------|----------------------------|
---------------------------------|----------------------------|
---------------------------------|----------------------------|


   Q       E   E   Q     E.    T  T     E.    T  T  E.    T  T  S  S  S  Q   
------------------------------------|--16~---------14~---------16----16-16~--|
------------------------------------|-----------------------------17---------|
--16br----14---------------------14-|-----------14----------14---------------|
--------------16~--L----17\---16----|--------16----------16------------------|
------------------------17\---------|----------------------------------------|
------------------------------------|----------------------------------------|


                                               /0\     /0\     
   S  S  S  H            E  S  S  S     Q      Q.      Q.      
-----21-24-24brb~--------L--L-24-24-|--24b----21------22------|
--22--------------------------------|-------------------------|
------------------------------------|-------------------------|
------------------------------------|-------------------------|
------------------------------------|-------------------------|
------------------------------------|-------------------------|


                                       -/1         -/1      \1        
   W                       H           H           H        H         
--24brb----------------|--24pb---------L--------|--L-----------------|
-----------------------|------------------------|--------------------|
-----------------------|------------------------|--------------------|
-----------------------|------------------------|--------------------|
-----------------------|------------------------|--------------------|
-----------------------|------------------------|-----------2--------|





Rhythm for solo


  PM              PM PM    PM    PM PM                               PM PM
------------------------|--------------------------|-----------------------|
------------------------|--------------------------|-----------------------|
-----6----4----6--------|-----6--------4--6--6--4--|--4------2----4--------|
-----4----4----4--------|-----4--------4--4--4--4--|--2------2----2--2--2--|
------------------------|--------------------------|-----------------------|
--2---------------2--2--|--2-----2--2--------------|-----------------------|


			   PM              PM PM    PM    PM      
------------------------|------------------------|-------------------------|
------------------------|------------------------|-------------------------|
--4--6--4--6------------|-----6----4----6--------|-----6-----4----6--6--4--|
--2--4--2--4------------|-----4----4----4--------|-----4-----4----4--4--4--|
------------------9\----|------------------------|-------------------------|
------------------------|--2---------------2--2--|--2-----2----------------|

                 PM PM                  
-----------------------|-----------------------|--------------|--------------|
-----------------------|-----------------------|--------------|--------------|
--4------2----4--------|--4--4-----6--L--------|--7-----------|--9-----------|
--2------2----2--2--2--|--2--2-----4--L--------|--7-----------|--9-----------|
-----------------------|-----------------------|--5-----------|--7-----------|
-----------------------|-----------------------|--------------|--------------|





Riff 3b (chorus breakdown)

 
----------------------|----------------------|----------------------|
----------------------|----------------------|----------------------|
----------------------|----------------------|--9-----------9-------|
--4-----------4-------|-----4-------4--------|--9-----------9-------|
--4-----------4-------|-----4-------4--------|--7-----------7-------|
--2-----------2-------|-----2-------2--------|----------------------|

   
-----------------------|----------------------|-----------------------|
-----------------------|----------------------|-----------------------|
-----9-------11--------|----------------------|-----------------------|
-----9-------11--------|--4-----------4-------|-----4-------4----4----|
-----7--------9--------|--4-----------4-------|-----4-------4----4----|
-----------------------|--2-----------2-------|-----2-------2----2----|

       
-----------------------|-----------------------|
-----------------------|-----------------------|
--9----9----9--9-------|-----9-------11--------|
--9----9----9--9-------|-----9-------11--------|
--7----7----7--7-------|-----7--------9--------|
-----------------------|-----------------------|





Outro Solo

                                                                <       
   Q       Q       Q       Q          Q       Q       Q         Q       
----------------------------------|------------------------------------|
--17------17------17------17------|--17------17------17------17------|
--16br----16br----16br----16br----|--16br----16br----16br------16br----|
----------------------------------|------------------------------------|
----------------------------------|------------------------------------|
----------------------------------|------------------------------------|


     \1           \1                                                   
     H.           Q       E  H         Q.           H        H         
-----------------------|------------------------|---------------------|
--17-----------------|--------------17b~------|---L--------L--------|
-----------------------|------------------------|---------------------|
-----------------------|------------------------|---------------------|
-----------------------|------------------------|---------------------|
------------------0----|------------------------|---------------------|


  Q    H.                      E  H         Q.       
--------------------|-------|--------------24b------|
--L-----------------|-------|-----------------------|
--------------------|-------|-----------------------|
--------------------|-------|-----------------------|
--------------------|-------|-----------------------|
--------------------|-------|-----------------------|


            PH                                          
  Q.        E   Q     Q         Q     H         E   E   
--L------21--21\----2/----|--------------------------|
----------------------------|--14------------------14--|
----------------------------|--14----11~--------L------|
----------------------------|--------------------------|
----------------------------|--------------------------|
----------------------------|--------------------------|


   Q       Q       Q      E   E   
-----------------------------17--|
--17br----17br----17b----19------|
---------------------------------|
---------------------------------|
---------------------------------|
---------------------------------|


                                     \1                                        
   |-----3----|     |-----3-----|                                            
   E    E     E     E     E     E    Q.      S  S     Q     S  S  E  H       
--17b--17pb--17pb--17pb--17pb--17pb---------------|-------------------------|
--------------------------------------------------|--14---------------------|
--------------------------------------------14-16-|--14---------------------|
--------------------------------------------------|--------16-14-16--L------|
--------------------------------------------------|-------------------------|
-------------------------------------2------------|-------------------------|





Riff 3 (outro)

			   PM    PM PM       
------------------------|----------------------------|
------------------------|----------------------------|
-------9----11----------|--------------9--11--11--9--|
--4----9----11----------|-----4--------9--11--11--9--|
--4----7-----9----------|-----4--------7---9---9--7--|
--2---------------2--2--|--2--2--2--2----------------|


                  PM PM        
------------------------|---------------------------|
-------10---------------|---------------------------|
--9-----9----9----------|--9--9-----11--L-----------|
--9-----7----9----------|--9--9-----11--L-----------|
--7-----7----7----7--7--|--7--7------9--L-----------|
------------------------|--------------------21\----|



Тональность:

Это должно быть в ТОП-листе! - Топ-лист композиций



Назад
Рекомендуем посмотреть другие песни исполнителя «Warlock»:

  • Комменты Fb ()
  • Комменты ВК



Добавить в Избранное Браузера
Сохранить здесь Очистить


x

0


+
-

+
-

-

Авторизация





Зарегистрироваться

M

Дата и время

  • 09:32:47
     

Социальные ссылки


Наши приложения

  • Muzbank App Play Market
  • Muzbank Amazon App