MUZBANK


МУЗЫКАЛЬНО-ИНФОРМАЦИОННЫЙ БАНК





WWarlock • Metal Racer (аккорды и текст - chords & lyrics)


68

Print

Видео «Metal Racer (Warlock)»

Видео клипы к песне подбираются автоматически сайтом youtube. Возможны некоторые несоответствия клипов песне.

↑ Спрятать рекламу ↑





Racing down on the motorway
No rest, no place to stay
He calls it running out of time

Got no place in society
Forever fought the Philistines
He forever walked upon his line

Outside of the law
An eternal war
No-one can hold him back
Ready to attack

He′s a damned - racing through the night
He′s a damned - will never see the light
He′s a damned - darkness in his eyes
He′s a damned - but metal racer never dies

Don′t care what other people say
Be what you are, take the hotter way
Don′t be a madman, don′t give up

Take this heavy sound into your brain
So it′s easier to break the chain
′Cause heavy metal knows no stop

Outside of the law
An eternal war
No-one can hold him back
Ready to attack

He′s a damned - racing through the night
He′s a damned - will never see the light
He′s a damned - darkness in his eyes
He′s a damned - but metal racer never dies

He′s a damned - racing through the night
He′s a damned - will never see the light
He′s a damned - darkness in his eyes
He′s a damned - but metal racer never dies

He′s racing down the motorway
No rest, no place to stay
He calls it running out of time

Got no place in society
Forever fought against the Philistines
Forever walked upon his line

Outside of the law
An eternal war
No-one can hold him back
Ready to attack

He′s a damned - racing through the night
He′s a damned - will never see the light
He′s a damned - darkness in his eyes
He′s a damned - but metal racer never gonna die!


/guitar tab/

.  - palm mute           /  - slide up to
\  - slide down to       ~  - vibrato
h  - hammer on           b  - Bend
p  - pull off            Suffixes for bend
t  - tap                 f  - full bend    h - half bend
ph - pinched harmonic    q  - quarter bend t - tap bend
*  - see comment         ^  - Hold bend    r release bend
x  - Stuccatto           ~  - vibrato bend
,  - slight palm mute    () - ghost note, sustained note
"  - tremolo note         - Trill
ps - pick scrape

Tuning E A D G B E

Riff 1
|-------------------------------------------------|
|-------------------------------------------------|
|-------------------------------------------------|
|-------9-----9-----9-----9-----5--4--------2-----|
|-------7-----7-----7-----7-----3--2--5--4--2-----|
|---0-0---0-0---0-0---0-0-------------3--2--0-----|
    . .   . .   . .   . .

|-------------------------------------------|
|-------------------------------------------|
|-------------------------------------------|
|-------9-----9-----9-----9-----------------|
|-------7-----7-----7-----7-----5--4--------|
|---0-0---0-0---0-0---0-0-------------3-2---|
    . .   . .   . .   . .

Riff 2: play 2 times
|-----------------------------------------|
|-----------------------------------------|
|-----------------------------------------|
|-------9-----9-----9-----9----12---------|
|-------7-----7-----7-----7----10----12---|
|---0-0---0-0---0-0---0-0------------10---|
    . .   . .   . .   . .

Riff 3
|--------------------------------------------------------|
|--------------------------------------------------------|
|--------------------------------------------------------|
|-------9-----9----7----6--------9-----9-----12----------|
|-------7-----7----5----4--------7-----7-----10----12----|
|---0-0---0-0----------------0-0---0-0-------------10----|
    . .   . .                . .   . .

|---------------------------------------------------------|
|---------------------------------------------------------|
|---------------------------------------------------------|
|-------9-----9----7----6--------9-----9------------------|
|-------7-----7----5----4--------7-----7-----3-2----------|
|---0-0---0-0----------------0-0---0-0-----------3p2p0----|
    . .   . .                . .   . .

Riff 4
|------------------------------------------------------|
|------------------------------------------------------|
|-------------------------------------------2----------|
|---7-------------------7-------------------2-----4----|
|---5--5-5-5---3p2p0----5--5-5-5---3p2p0----0-----2----|
|------------------------------------------------------|
       . . .               . . .

Riff 5: chorus.
|------------------------------------------------------------------|
|------------------------------------------------------------------|
|------------------------------------------------------------------|
|---9-----12--------------------------9-----12----5----------------|
|---7-----10-----10---10-9---10-9-----7-----10----3----2h3p2-------|
|-----------------8----8-7----8-7----------------------------5-2---|


|--------------------------------------------------------------------|
|--------------------------------------------------------------------|
|--------------------------------------------------------------------|
|---9-----12--------------------------9-----12----5-----5--4---------|
|---7-----10-----10---10-9---10-9-----7-----10----3-----3--2--5--4---|
|-----------------8----8-7----8-7-----------------------------3--2---|


Riff 2′: play 2 times. The second time add the lead at the * mark
|--------------------------------------|
|---*----------------------------------|
|--------------------------------------|
|-------9-----9-----9-------12---------|
|-------7-----7-----7-------10----12---|
|---0-0---0-0---0-0---0-0---------10---|
    . .   . .   . .   . .

lead:
|------------------------------------|
|------------------------------------|
|------------------------------------|
|--9b-9b---9hold---7h9p7-------------|
|------------------------10-7hold----|
|------------------------------------|

Riff 3

Riff 4

Riff 5: chorus

Riff 6: play 2 times
|-----------------------------------------------------------------------|
|-----------------------------------------------------------------------|
|-----------------------------------------------------------------------|
|-------9-----7-----5-----7-----7---------9-----7-----5-----4-----------|
|-------7-----5-----3-----5-----5---------7-----5-----3-----2------5----|
|---0-0---0-0---0-0---0-0---0-0-------0-0---0-0---0-0---0-0---0-0--3----|
    . .   . .   . .   . .   . .       . .   . .   . .   . .   . .

Solo: play Riff 6 as background

Riff 5: chorus.

Riff 2: play 2 times

Riff 3

Riff 4

Riff 5′: chorus. The ending is different here
|------------------------------------------------------------------|
|------------------------------------------------------------------|
|------------------------------------------------------------------|
|---9-----12--------------------------9-----12----5----------------|
|---7-----10-----10---10-9---10-9-----7-----10----3----2h3p2-------|
|-----------------8----8-7----8-7----------------------------5-2---|


|-----------------------------------------------------|
|-----------------------------------------------------|
|-----------------------------------------------------|
|---9-----12--------------------------9-----12----5---|
|---7-----10-----10---10-9---10-9-----7-----10----3---|
|-----------------8----8-7----8-7---------------------|

|---------------------------------------------|
|---------------------------------------------|
|---------------------------------------------|
|---5--4-----------------------2-----2-2-2----|
|---3--2--7--5--7--5--4--------2-----2-2-2----|
|---------5--3--5--3--2--------0-----0-0-0----|

Тональность:

Это должно быть в ТОП-листе! - Топ-лист композиций



Назад
Рекомендуем посмотреть другие песни исполнителя «Warlock»:

  • Комменты Fb ()
  • Комменты ВК



Добавить в Избранное Браузера
Сохранить здесь Очистить


x

0


+
-

+
-

-

Авторизация





Зарегистрироваться

M

Дата и время

  • 20:35:02
     

Социальные ссылки


Наши приложения

  • Muzbank App Play Market
  • Muzbank Amazon App