MUZBANK


МУЗЫКАЛЬНО-ИНФОРМАЦИОННЫЙ БАНК





WWarlock • Metal Tango (аккорды и текст - chords & lyrics)


50

Print

Видео «Metal Tango (Warlock)»

Видео клипы к песне подбираются автоматически сайтом youtube. Возможны некоторые несоответствия клипов песне.

↑ Спрятать рекламу ↑





My hands are in motion
My wheels do not change
My pain I turn into heat
Inside these flames
When time has no meanin′
Where seasons don′t change
I dream with the heart of a thief
And I don′t feel no shame

There′s an island
In my soul
There′s desire
Burnin′ deep down, down below

Dance demons
Lose control
This is a metal a metal tango
Dance demons
Don′t you know
This is a metal a metal tango
This is a metal...tango

The sky is cryin′
The tears fall like rain
The wind it gave me the key
To unlock these chains

There′s an island
In my soul
There′s desire
Burnin′ deep down, down below

Dance demons
Lose control
This is a metal a metal tango
Dance demons
Don′t you know
This is a metal a metal tango
This is a metal...tango

There′s desire
In my soul
Burnin′ deep down, down below

Dance demons
Lose control
This is a metal a metal tango
Dance demons
Don′t you know
This is a metal a metal tango
This is a metal...tango

Don′t you know
This is a metal tango
This is a metal tango
Don′t you know
This is a metal tango

/Guitar tab/

.  - palm mute           /  - slide up to
\  - slide down to       ~  - vibrato
h  - hammer on           b  - Bend
p  - pull off            Suffixes for bend
t  - tap                 f  - full bend    h - half bend
ph - pinched harmonic    q  - quarter bend t - tap bend
*  - see comment         ^  - Hold bend    r release bend
x  - Stuccatto           ~  - vibrato bend
,  - slight palm mute    () - ghost note, sustained note
"  - tremolo note         - Trill
ps - pick scrape

Tuning E A D G B E

Riff 1: play 2 times. Chords between brackets only first time
|---------------------------------------------------------|
|---------------------------------------------------------|
|-------------------------------------2-------------------|
|---6-----4-6-6---------------6-6-----2----(6\)-4--(8\)---|
|---4-----2-4-4---7-6-7-------4-4-----0----(4\)-2--(6\)---|
|-----------------------7---------------------------------|
                  , , , ,

Riff 2: play 2 times. The notes between brackets is the bass
|--------------------------------------|
|--------------------------------------|
|--------------------------------------|
|------------4--6----2-2-1-2--4-6------|
|--(4-4-4)---2--4-------------2-4-4-4--|
|--------------------------------------|
                     , , , ,      . .

Guitar 1 adds the leads below at the * marks
|------------*--------------------------------------------------------|
|---------------------------------------------------------------------|
|------------2--------------------------------------------------------|
|------------2----6\4---8-6-----4-------------------------------------|
|--(4-4-4)---0----4\2---6-4-----2-----7-----6-----7--------7-6--------|
|-------------------------------------5-----4-----5-5-5-5--5-4-4-4-4--|
                                                    . . .      . . .

lead first time:
|---11-------------16-11b----------------------------------------16~ ---|
|------14-12-14-----------14hold---9hold--7hold--5hold/9hold------------|
|-----------------------------------------------------------------------|
|-----------------------------------------------------------------------|
|-----------------------------------------------------------------------|
|-----------------------------------------------------------------------|

lead second time:
|-----------11-------9/11\9hold-------21-19---|
|---9hold------12-9---------------------------|
|---------------------------------------------|
|---------------------------------------------|
|---------------------------------------------|
|---------------------------------------------|


Riff 3:
|--------------------------------------------------------------|
|--------------------------------------------------------------|
|--------------------------------------------------------------|
|---------------------------------------------------2----------|
|---7--9-9----7--9-9----7--9--4-4-4-----4-----4-6-4-2--4-4-4---|
|---5--7-7----5--7-7----5--7------------2-0-0-2-4-2-0----------|
                              . . .                    . . .

|-----------------------------------------------------|
|-----------------------------------------------------|
|-----------------------------------------------------|
|-----------------------------------------------------|
|---7--9-9----7--9-9----7--9--4-4-4-----7---6---------|
|---5--7-7----5--7-7----5--7------------5---4--4-4-4--|
                              . . .            . . .

Riff 4: play 2 times
|-------------------------------------------------|
|-------------------------------------------------|
|-------------------------------------------------|
|---6-----6-6--4--------------------------4---6---|
|---4-----4-4--2---6----6--7-7--9-9---7---2---4---|
|------------------4----4--5-5--7-7---5-----------|

after second time add this:
|--------------|
|--------------|
|--------------|
|--------------|
|---7---6------|
|---5---4------|


Riff 1: play once

Riff 2: play once (only play first lead)

Riff 3: play 2 times

Riff 4: play 2 times

Solo: play this riff as background

   play this 2 times     then this once  this 4 times this 3 times end with
|-------------------------|---------------|----------|------------|--------|
|-------------------------|---------------|----------|------------|--------|
|-------------------------|---------------|--2---3---|------------|--------|
|-------------4-----------|---6-----------|--4---5---|------------|--6-----|
|-4-----6-----2-----7--6--|---4-----------|--4---5---|--7---5-----|--4-----|
|-2-----4-----------5--4--|---------------|--2---3---|--5---3-----|--------|


Riff 5:
|--------------------------------------------------|
|--------------------------------------------------|
|--------------------------------------------------|
|---------------2---6----4---------------------4---|
|---4-----4-6-4-2---4----2----7--------6----7--2---|
|---2-0-0-2-4-2-0-------------5--------4----5------|


Riff 4: play 2 times

Riff 2: with different lead now. Repeat till end.

lead:
|----------------------------|
|----------------------------|
|-----------4----------------|
|---------4------------------|
|---4-6-7------6-7-6-7--4----|
|----------------------------|

Тональность:

Это должно быть в ТОП-листе! - Топ-лист композиций



Назад
Рекомендуем посмотреть другие песни исполнителя «Warlock»:

  • Комменты Fb ()
  • Комменты ВК



Добавить в Избранное Браузера
Сохранить здесь Очистить


x

0


+
-

+
-

-

Авторизация





Зарегистрироваться

M

Дата и время

  • 09:01:13
     

Социальные ссылки


Наши приложения

  • Muzbank App Play Market
  • Muzbank Amazon App