MUZBANK


МУЗЫКАЛЬНО-ИНФОРМАЦИОННЫЙ БАНК





WWeezer • Falling For You (аккорды и текст - chords & lyrics)


331

Print

Видео «Falling For You (Weezer)»

Видео клипы к песне подбираются автоматически сайтом youtube. Возможны некоторые несоответствия клипов песне.

↑ Спрятать рекламу ↑





Weezer - Falling For You
album: Pinkerton

/BASS TAB:/

Gb :------------------------|------------------------|
Db :------------------------|------------------------|
Ab :------------------------|------------------------|
Eb :------------------------|------------------------|

Gb :------------------------|------------------------|
Db :------------------------|------------------------|
Ab :-------------7----------|-6-----------4----------|
Eb :------------------------|------------------------|

Gb :------------------------|---------------------------|
Db :------------------------|---------------------------|
Ab :-2-----------0----------|-2-------------------------|
Eb :------------------------|-------------4-------------|

Gb :-----------------|----------------|----------------|----------------|
Db :-----------------|----------------|----------------|----------------|
Ab :-----------------|4-4-4-4-4-4-4-4-|----------------|2-2-2-2-2-2-2-2-|
Eb :-----------4-4-4-|----------------|2-2-2-2-2-2-2-2-|----------------|

Gb :----------------|------------------|------------------|
Db :----------------|------------------|------------------|
Ab :*---------------|-4-4-4-4-4-4--4-4-|-0-0-0-0-0-0--0-0-|
Eb :4-4-4-4--*0-0-0-|------------------|------------------|

Gb :------------------|----------------|------------------|
Db :------------------|----------------|------------------|
Ab :-2-2-2-2-2-2--2-2-|----------------|-4-4-4-4-4-4--4-4-|
Eb :------------------|0-0-0-0-0-0-0-0-|------------------|

Gb :------------------|------------------|-----------------|
Db :------------------|------------------|-----------------|
Ab :------------------|-2-2-2-2-2-2--2-2-|-*---------------|
Eb :-2-2-2-2-2-2--2-2-|------------------|-4-4-4-4-4*0-0-0-|

Gb :----------------|----------------|------------------------|--------|
Db :----------------|----------------|------------------------|--------|
Ab :4-4-4-4-4-4-4-4-|9-9-9-9-9-9-9-9-|11--*-------------------|--------|
Eb :----------------|----------------|------------------------|--4-4-4-|

Gb :----------------|----------------|----------------|----------------|
Db :----------------|----------------|----------------|----------------|
Ab :----------2-2-2-|----------------|2-2-2-2-5-------|3-3-3-3-*-------|
Eb :5---5-5-*-------|0---0-0-*-0-0-0-|------------3---|----------4-4-4-|

Gb :----------------|----------------|----------------|----------------|
Db :----------------|----------------|----------------|----------------|
Ab :----------2-2-2-|----------------|2-2-2-2-*-2-2-2-|--------5-5-5-5-|
Eb :5---5-5---------|0---0-0-*-0-0-0-|----------------|0---0-0---------|

Gb :----------------|----------------|----------------|----------------|
Db :----------------|----------------|----------------|----------------|
Ab :----------------|5---5-5-4---4-4-|2---2-2-0---0-0-|----------------|
Eb :3-3-3-3-5-5-5-5-|----------------|----------------|4---4-4-5---5-5-|

Gb :------------------|----------------|----------------|
Db :------------------|----------------|----------------|
Ab :------------------|4-4-4-4-4-4-4-4-|----------------|
Eb :2---2-2-4---4---4-|----------------|2-2-2-2-2-2-2-2-|

Gb :------------------|------------------|----------------|
Db :------------------|------------------|----------------|
Ab :-0-0-0-0-0-0--0-0-|-2-2-2-2-2-2--2-2-|----------------|
Eb :------------------|------------------|0-0-0-0-0-0-0-0-|

Gb :------------------|------------------|-----------------|
Db :------------------|------------------|-----------------|
Ab :-4-4-4-4-4-4--4-4-|------------------|-2-2-2-2-2-2-2-2-|
Eb :------------------|-2-2-2-2--2-2-2-2-|-----------------|

Gb :----------------|----------------|----------------|
Db :----------------|----------------|----------------|
Ab :*---------------|4-4-4-4-4-4-4-4-|9-9-9-9-9-9-9-9-|
Eb :4-4-4-4-4*0-0-0-|----------------|----------------|

Gb :------------------------|--------|----------------|----------------|
Db :------------------------|--------|----------------|----------------|
Ab :11*---------------------|--------|----------2-2-2-|----------------|
Eb :------------------------|--4-4-4-|5---5-5-*-------|0---0-0-*-0-0-0-|

Gb :----------------|----------------|----------------|----------------|
Db :----------------|----------------|----------------|----------------|
Ab :2-2-2-2-5-------|3-3-3-3-*-------|----------2-2-2-|----------------|
Eb :------------3---|----------4-4-4-|5---5-5---------|0---0-0-*-0-0-0-|

Gb :----------------|----------------|----------------|----------------|
Db :----------------|----------------|----------------|----------------|
Ab :2-2-2-2-*-2-2-2-|--------5-5-5-5-|----------------|5---5-5-4---4-4-|
Eb :----------------|0---0-0---------|3-3-3-3-5-5-5-5-|----------------|

Gb :----------------|----------------|-------------------|
Db :----------------|----------------|-------------------|
Ab :2---2-2-0---0-0-|----------------|--------2---2---2--|
Eb :----------------|4---4-4-5---5-5-|2---2-2------------|

Gb :-------------------|------------------|----------------------|
Db :-------------------|------------------|----------------------|
Ab :-----------0---0-0-|------------------|----------------------|
Eb :-0----0--0---------|-3---3-3--2---2-2-|-0---0--0--0--0--0--0-|

Gb :---------------------|----------------------|---------------------|
Db :---------------------|----------------------|---------------------|
Ab :-3---3--3--5----5--5-|----------------------|---------------------|
Eb :---------------------|3---3-3--3--3--3--3---|-3---3-3--2-----2--2-|

Gb :---------------------|----------------------|-----------------|
Db :---------------------|----------------------|-----------------|
Ab :---------------------|-2---2--2--5--5--5--5-|-----------------|
Eb :-0---0-0--0--0--0--0-|----------------------|-0---0-0-0-0-0-0-|

Gb :-----------------|----------------|-----------------|
Db :-----------------|----------------|-----------------|
Ab :-0---0-0-0-0-0-0-|5---5-5-5-5-5-5-|-2---2-2-*-------|
Eb :-----------------|----------------|-----------3-3-3-|

Gb :-----------------|-----------------|----------------|
Db :-----------------|-----------------|----------------|
Ab :-----------------|-0---0-0-0-0-0-0-|5---5-5-5-5-5-5-|
Eb :-0---0-0-0-0-0-0-|-----------------|----------------|

Gb :----------------|----------------|-----------------|
Db :----------------|----------------|-----------------|
Ab :2---2-2-2-2-2-2-|----------------|-0---0-0-0-0-0-0-|
Eb :----------------|0---0-0-0-0-0-0-|-----------------|

Gb :-----------------|----------------|----------------|----------------|
Db :-----------------|----------------|----------------|----------------|
Ab :-5---5-5-5-5-3-3-|2---2-2-*-------|----------------|0-0-0-0-0-0-0-0-|
Eb :-----------------|----------3-3-3-|0---0-0-0-0-0-0-|----------------|

Gb :----------------|--------|----------------|----------------|
Db :----------------|--------|----------------|----------------|
Ab :2-*-------------|--2-2-2-|3---3-3-*-5-5-5-|----------------|
Eb :----------------|--------|----------------|3---3-3-*-3-3-3-|

Gb :-----------------|----------------|----------------|----------------|
Db :---------3-------|----------------|----------------|----------------|
Ab :5-5-5-5----------|6-6-6-6-*-2-2-2-|3---3-3-*-5-5-5-|----------------|
Eb :-------------6---|----------------|----------------|3---3-3-*-3-3-3-|

Gb :----------------|----------------|----------------|----------------|
Db :----------------|----------------|----------------|----------------|
Ab :5-5-5-5-*-5-5-5-|--------3---3-3-|--------6---6-6-|--------3---3-3-|
Eb :----------------|3---3-3---------|6---6-6---------|3---3-3---------|

Gb :----------------|----------------|
Db :----------------|----------------|
Ab :--------6---6-6-|----------------|
Eb :6---6-6---------|3---------------|



/GUITAR TAB:/


Intro (Clean)
Guitar 1
eb|-----16----------16----------16----------16----------16----------16--------|
Bb|-----------17----------17----------17----------17----------17----------17--|
Gb|--16----16----16----16----16----16----16----16----16----16----16----16-----|
Db|---------------------------------------------------------------------------|
Ab|---------------------------------------------------------------------------|
Eb|---------------------------------------------------------------------------|

eb|-----16----------16----------16----------16----------16----------16--------|
Bb|-----------17----------17----------17----------17----------17----------17--|
Gb|--16----16----16----16----16----16----16----16----16----16----16----16-----|
Db|---------------------------------------------------------------------------|
Ab|---------------------------------------------------------------------------|
Eb|---------------------------------------------------------------------------|
*******************************************************************************
eb|---------------------------------------------------------------------------------------|
Bb|---------------------------------------------------------------------------------------|
Gb|-----------------6--8--9-------------------------------------4--6--4--6b--6b-6b-6-4----|
Db|-----6--7--9----------------6----6--4-----6----------4------------------------------6--|
Ab|--7-----------7------------------------7-----7----7-----6------------------------------|
Eb|---------------------------------------------------------------------------------------|


Verse (Guitar 1)
eb|------------------------------------------------------------------------------------|
Bb|------------------------------------------------------------------------------------|
Gb|------------------------------------------------------------------------------------|
Db|--4--4--4--6----6----6----6----4----4----4----4----4----4----4----4----6----6----6--|
Ab|--4--4--4--4----4----4----4----4----4----4----4----2----2----2----2----6----6----6--|
Eb|--2--2--2--4----4----4----4----2----2----2----2----2----2----2----2----4----4----4--|

eb|------------------------------------------------------------------------------------|
Bb|------------------------------------------------------------------------------------|
Gb|------------------------------------------------------------------------------------|
Db|--2--2--2--6----6----6----6----7----7----7----7----9----9----9----9----2----2----2--|
Ab|--2--2--2--4----4----4----4----7----7----7----7----9----9----9----9----2----2----2--|
Eb|--0--0--0--4----4----4----4----5----5----5----5----7----7----7----7----0----0----0--|
(Strum each as 16th notes)**************************************************************
eb|------------------------------------------------------------------------------------|
Bb|----------12-------------10----9-------------------7-------------------5------------|
Gb|-----------x--------------x----x-------------------x-------------------x------------|
Db|-----------9--------------7----6-------------------4-------------------2------------|
Ab|------------------------------------------------------------------------------------|
Eb|------------------------------------------------------------------------------------|

eb|--------------------------------------------------------------------------------|
Bb|--------------------------------------------------------------------------------|
Gb|--------------------------------------------------------------------------------|
Db|--6----6----6----6----4----4----4----4----4----4----4----4----6----6----6----6--|
Ab|--4----4----4----4----4----4----4----4----2----2----2----2----6----6----6----6--|
Eb|--4----4----4----4----2----2----2----2----2----2----2----2----4----4----4----4--|
************************************************************************************
eb|--------------------------------------------------------------------------------|
Bb|-12-------------10----9-------------------7-------------------9-----------------|
Gb|--x--------------x----x-------------------x-------------------x-----------------|
Db|--9--------------7----6-------------------4-------------------6-----------------|
Ab|--------------------------------------------------------------------------------|
Eb|--------------------------------------------------------------------------------|

eb|--------------------------------------------------------------------------------|
Bb|--------------------------------------------------------------------------------|
Gb|--------------------------------------------------------------------------------|
Db|--2--2--2--6--6--6--6--6--6--6--6--4--4--4--4--4--4--4--4--6~--------6~---------|
Ab|--2--2--2--4--4--4--4--4--4--4--4--4--4--4--4--4--4--4--4--6~--------6~---------|
Eb|--0--0--0--4--4--4--4--4--4--4--4--2--2--2--2--2--2--2--2--4~--------4~---------|

Chorus
eb|-----------------------------------------------------------------------------------------|
Bb|-----------------------------------------------------------------------------------------|
Gb|-----------------------------------------------------------------------------------------|
Db|--7--7--7--7--7--9--9--9--9--9--9--9--9--9--9--9--9--9--9--12---5---10-10-10-10---6-6-6--|
Ab|--7--7--7--7--7--9--9--7--7--7--7--7--7--7--7--9--9--9--9--12---5---10-10-10-10---6-6-6--|
Eb|--5--5--5--5--5--7--7--7--7--7--7--7--7--7--7--7--7--7--7--10---3----8--8--8--8---4-4-4--|

eb|-----------------------------------------------------------------------|
Bb|-----------------------------------------------------------------------|
Gb|-----------------------------------------------------------------------|
Db|--7--7--7--7--7--9--9--9--9--9--9--9--9--9--9--9--9--9--9--9--9--9--9--|
Ab|--7--7--7--7--7--9--9--7--7--7--7--7--7--7--7--9--9--9--9--9--9--9--9--|
Eb|--5--5--5--5--5--7--7--7--7--7--7--7--7--7--7--7--7--7--7--7--7--7--7--|

   1:03
eb|----------------------------------------|
Bb|----------------------------------------|
Gb|--9----9----7----7----------------------|
Db|--9----9----7----7----5----5----7----7--|
Ab|--7----7----5----5----5----5----7----7--|
Eb|--7----7----5----5----3----3----5----5--|

First Solo
eb|-----------------------------------------------------------------------|
Bb|-----------------------------------------------------------------------|
Gb|--7--7--7--7--7--7--7--7--4--4--4--4--4--4--4--4-----------------------|
Db|--7--7--7--7--7--7--7--7--4--4--4--4--4--4--4--4--7--7--7--7--7--7--7--|
Ab|--5--5--5--5--4--4--4--4--2--2--2--2--0--0--0--0--7--7--7--7--7--7--7--|
Eb|--------------------------------------------------4--4--4--4--5--5--5--|
***************************************************************************
eb|-----------------------------------------------------------------------|
Bb|-----------------------------------------------------------------------|
Gb|-----------------------------------------------------------------------|
Db|--------------------9--11--12------------------------------------------|
Ab|-----9--10--12-----------------9-----9---------------------------------|
Eb|--10------------10----------------------12--10--12--10----10--12--9----|

eb|--------------------------------------------------------------|
Bb|--------------------------------------------------------------|
Gb|--------------------------------------------------------------|
Db|--7--7--4--4--4--4--6--6--6--6--------------------------------|
Ab|--7--7--4--4--4--4--6--6--6--6--------------------------------|
Eb|--5--5--2--2--2--2--4--4--4--4--------------------------------|
*****************************************************************
eb|--------------------------------------------------------------|
Bb|--------------------------------------------------------------|
Gb|---------------------7*-7--7p6--------------------------------|
Db|--7--9--7----7--9--------------9------------------------------|
Ab|--------------------------------------------------------------|
Eb|--------------------------------------------------------------|

Second Verse
eb|--------------------------------------------------------------------------------|
Bb|--------------------------------------------------------------------------------|
Gb|--------------------------------------------------------------------------------|
Db|--6----6----6----6----4----4----4----4----4----4----4----4----6----6----6----6--|
Ab|--4----4----4----4----4----4----4----4----2----2----2----2----6----6----6----6--|
Eb|--4----4----4----4----2----2----2----2----2----2----2----2----4----4----4----4--|

eb|------------------------------------------------------------------------------------|
Bb|------------------------------------------------------------------------------------|
Gb|------------------------------------------------------------------------------------|
Db|--2--2--2--6----6----6----6----7----7----7----7----9----9----9----9----2----2----2--|
Ab|--2--2--2--4----4----4----4----7----7----7----7----9----9----9----9----2----2----2--|
Eb|--0--0--0--4----4----4----4----5----5----5----5----7----7----7----7----0----0----0--|
****************************************************************************************
eb|------------------------------------------------------------------------------------|
Bb|----------12-------------10----9-------------------7-------------------5------------|
Gb|-----------x--------------x----x-------------------x-------------------x------------|
Db|-----------9--------------7----6-------------------4-------------------2------------|
Ab|------------------------------------------------------------------------------------|
Eb|------------------------------------------------------------------------------------|

eb|--------------------------------------------------------------------------------|
Bb|--------------------------------------------------------------------------------|
Gb|--------------------------------------------------------------------------------|
Db|--6----6----6----6----4----4----4----4----4----4----4----4----6----6----6----6--|
Ab|--4----4----4----4----4----4----4----4----2----2----2----2----6----6----6----6--|
Eb|--4----4----4----4----2----2----2----2----2----2----2----2----4----4----4----4--|
************************************************************************************
eb|--------------------------------------------------------------------------------|
Bb|-12-----------16--------14---------------------7--------------9-----------------|
Gb|--x------------x---------x---------------------x--------------x-----------------|
Db|--9-----------13--------11---------------------4--------------6-----------------|
Ab|--------------------------------------------------------------------------------|
Eb|--------------------------------------------------------------------------------|

eb|--------------------------------------------------------------------------------|
Bb|--------------------------------------------------------------------------------|
Gb|--------------------------------------------------------------------------------|
Db|--2--2--2--6--6--6--6--6--6--6--6--4--4--4--4--4--4--4--4--6~--------6~---------|
Ab|--2--2--2--4--4--4--4--4--4--4--4--4--4--4--4--4--4--4--4--6~--------6~---------|
Eb|--0--0--0--4--4--4--4--4--4--4--4--2--2--2--2--2--2--2--2--4~--------4~---------|

Second Chorus
eb|-----------------------------------------------------------------------------------------|
Bb|-----------------------------------------------------------------------------------------|
Gb|-----------------------------------------------------------------------------------------|
Db|--7--7--7--7--7--9--9--9--9--9--9--9--9--9--9--9--9--9--9--12---5---10-10-10-10---6-6-6--|
Ab|--7--7--7--7--7--9--9--7--7--7--7--7--7--7--7--9--9--9--9--12---5---10-10-10-10---6-6-6--|
Eb|--5--5--5--5--5--7--7--7--7--7--7--7--7--7--7--7--7--7--7--10---3----8--8--8--8---4-4-4--|

eb|-----------------------------------------------------------------------|
Bb|-----------------------------------------------------------------------|
Gb|-----------------------------------------------------------------------|
Db|--7--7--7--7--7--9--9--9--9--9--9--9--9--9--9--9--9--9--9--9--9--9--9--|
Ab|--7--7--7--7--7--9--9--7--7--7--7--7--7--7--7--9--9--9--9--9--9--9--9--|
Eb|--5--5--5--5--5--7--7--7--7--7--7--7--7--7--7--7--7--7--7--7--7--7--7--|

eb|----------------------------------------|
Bb|----------------------------------------|
Gb|--9----9----7----7----------------------|
Db|--9----9----7----7----5----5----7----7--|
Ab|--7----7----5----5----5----5----7----7--|
Eb|--7----7----5----5----3----3----5----5--|

Second Solo
eb|--------------------------------------------------------------------|
Bb|--------------------------------------------------------------------|
Gb|--7--7--7--7--7--7--7--7--4--4--4--4--4--4--4--4--------------------|
Db|--7--7--7--7--7--7--7--7--4--4--4--4--4--4--4--4--7--7--7--7--7--7--|
Ab|--5--5--5--5--4--4--4--4--2--2--2--2--0--0--0--0--7--7--7--7--7--7--|
Eb|--------------------------------------------------4--4--4--4--5--5--|
************************************************************************
eb|--------------------------------------------------------------------|
Bb|--------------------------------------------------------------------|
Gb|--------------------------------------------------------------------|
Db|--------------------9--11--12---------------------------------------|
Ab|-----9--10--12-----------------9-----9------------------------------|
Eb|-10-------------10----------------------12--10--12--10----10--12--9-|

eb|--------------------------------------------------------|
Bb|--------------------------------------------------------|
Gb|--------------------------------------------2--2--2--2--|
Db|--7--7--4--4--4--4--4--4--4--4--2--2--2--2--2--2--2--2--|
Ab|--7--7--4--4--4--4--2--2--2--2--2--2--2--2--0--0--0--0--|
Eb|--5--5--2--2--2--2--2--2--2--2--0--0--0--0--------------|
************************************************************
eb|--------------------------------------------------------|
Bb|--------------------------------------------------------|
Gb|--------------------------------9--11--11----11--12--9--|
Db|--7--9--7----7------------------------------------------|
Ab|-----------------10--9----------------------------------|
Eb|--------------------------------------------------------|

eb|--------------------------------------------------------------------------------------|
Bb|--------------------------------------------------------------------------------------|
Gb|--------------------------------------------------------------------------------------|
Db|--5----5----5----5----2----2----------------5----5----7----7----5----5----5----5------|
Ab|--5----5----5----5----2----2----------------3----3----5----5----5----5----5----5------|
Eb|--3----3----2----2----0----0----------------3----3----5----5----3----3----3----3------|
******************************************************************************************
eb|-------------------------14-14-12--12----------------------------------------12-12h14-|
Bb|-12--------10--------15---------------15-12---15--12-------------------12-15----------|
Gb|--x---------x---------x------------------------------14-12-14-12----------------------|
Db|--9---------7--------12---------------------------------------------------------------|
Ab|--------------------------------------------------------------------------------------|
Eb|--------------------------------------------------------------------------------------|

eb|--------------------------------------------------------------------------------------|
Bb|--------------------------------------------------------------------------------------|
Gb|--------------------------------------------------------------------------------------|
Db|--5----5----5----5----2----2----------------5----5----7----7--------------------------|
Ab|--5----5----5----5----2----2----------------3----3----5----5--------------------------|
Eb|--3----3----2----2----0----0----------------3----3----5----5--------------------------|
******************************************************************************************
eb|--22--22----22b24r22-20-19----19-19---------20-19----19--22---------------------------|
Bb|------------------------------------17-19-20----------------22b24r22--20-22-20--------|
Gb|--------------------------------------------------------------------------------------|
Db|--------------------------------------------------------------------------------------|
Ab|--------------------------------------------------------------------------------------|
Eb|--------------------------------------------------------------------------------------|

Third Verse (2:35)
eb|--------------------------------------------------------------------------------|
Bb|--------------------------------------------------------------------------------|
Gb|--------------------------------------------------------------------------------| 
Db|--9----9----9----9----7----7----7----7----7----7----7----7----4----4----4----4--|    
Ab|--7----7----7----7----7----7----7----7----5----5----5----5----2----2----2----2--|
Eb|--7----7----7----7----5----5----5----5----5----5----5----5----2----2----2----2--|
************************************************************************************
eb|--15~~~~------------------------------------------------------------------------|
Bb|----------------------13~~~~--------------15~~~~--------------------------------|
Gb|--------------------------------------------------------------16~~~~------------| 
Db|--------------------------------------------------------------------------------|    
Ab|--------------------------------------------------------------------------------|
Eb|--------------------------------------------------------------------------------|

eb|-----------------------------------------------------------------------------------------|
Bb|-----------------------------------------------------------------------------------------|
Gb|-----------------------------------------------------------------------------------------| 
Db|--5--5--5--9----9----9----9----5----5----5----5----7----7----7----7----4----4----4----4--|    
Ab|--5--5--5--7----7----7----7----3----3----3----3----5----5----5----5----2----2----2----2--|
Eb|--3--3--3--7----7----7----7----3----3----3----3----5----5----5----5----2----2----2----2--|
*********************************************************************************************
eb|-----------15------12--------------------17-15-------------------------------------------|
Bb|----------------------13-----12-13-----------------15-17------17-19-19~------------------|
Gb|-----------------------------------------------------------------------------------------|
Db|-----------------------------------------------------------------------------------------|
Ab|-----------------------------------------------------------------------------------------|
Eb|-----------------------------------------------------------------------------------------|

eb|--------------------------------------------------------------------------------|
Bb|--------------------------------------------------------------------------------|
Gb|--------------------------------------------------------------------------------| 
Db|--9----9----9----9----7----7----7----7----7----7----7----7----5----4----4----4--|    
Ab|--7----7----7----7----7----7----7----7----5----5----5----5----3----2----2----2--|
Eb|--7----7----7----7----5----5----5----5----5----5----5----5----3----2----2----2--|

eb|--------------------------------------------------|
Bb|--------------------------------------------------|
Gb|--------------------------------------------------| 
Db|--9--9--9--9--9--9--9--9--5--5--5--5--5--5--5--5--|    
Ab|--7--7--7--7--7--7--7--7--3--3--3--3--3--3--3--3--|
Eb|--7--7--7--7--7--7--7--7--3--3--3--3--3--3--3--3--|


Final Chorus
eb|----------------------------------------------------------------------|
Bb|----------------------------------------------------------------------|
Gb|----------------------------------------------------------------------|
Db|--4~------4--4--4--4--5--5--5--5--5--7--7--7--5--5--5--5--5--5--5--5--|
Ab|--2~------2--2--2--2--3--3--3--3--3--5--5--5--5--5--5--5--5--5--5--5--|
Eb|--2~------2--2--2--2--3--3--3--3--3--5--5--5--3--3--3--3--3--3--3--3--|

eb|---------------------------------------------------------------------------------------|
Bb|---------------------------------------------------------------------------------------|
Gb|---------------------------------------------------------------------------------------|
Db|--7--7--7--7--10---4---8--8--8--8---4--4---5--5--5--5--5--7--7--7--5--5--5--5--5--5--5-|
Ab|--5--5--5--5---8---2---6--6--6--6---2--2---3--3--3--3--3--5--5--5--5--5--5--5--5--5--5-|
Eb|--5--5--5--5---8---2---6--6--6--6---2--2---3--3--3--3--3--5--5--5--3--3--3--3--3--3--3-|

eb|--------------------------------------------------------------------|
Bb|--------------------------------------------------------------------|
Gb|--------------------------------------------------------------------|
Db|--7--7--7--7----x--7--7--7--12----12---10---10----8----8----8----8--|
Ab|--5--5--5--5----x--5--5--5--10----10----8----8----8----8----6----6--|
Eb|--5--5--5--5----x--5--5--5--10----10----8----8----6----6----6----6--|

eb|------------------------------------------------------------------------|
Bb|------------------------------------------------------------------------|
Gb|------------------------------------------------------------------------|
Db|--12----12---10---10----8----8----8----8--------5~----------------------|
Ab|--10----10----8----8----8----8----6----6--------5~----------------------|
Eb|--10----10----8----8----6----6----6----6--------3~----------------------|
****************************************************************************
eb|--------15-15-15-15-15-15-15-15-15-15-15------------16~-------16~-------|
Bb|---------x--x--x--x--x--x--x--x--x--x--x--------------------------------|
Gb|--------12-12-12-12-12-12-12-12-12-12-12-------16~-------16~-------16~--|
Db|------------------------------------------------------------------------|
Ab|------------------------------------------------------------------------|
Eb|------------------------------------------------------------------------|


/LYRICS:/
Holy cow! I think I've got one here
Now just what am I supposed to do?
I've got a number of irrational fears
That I'd like to share with you
First, there's rules about old goats like me
Hanging around with chicks like you
But I do like you and another one:

You say 'like' too much
But I'm shaking at your touch
I like you way too much
My baby, I'm afraid I'm falling for you
And I'd do about anything to get the hell out alive
Or maybe I would rather settle down with you

Holy moly, baby, wouldn't you know it?
Just as I was busting loose
I gotta go turn in my rock star card
And get fat and old with you
Cos I'm a burning a candle you're a gentle moth
Teaching me to lick a little bit kinder
And I do like you - you're the lucky one
No, I'm the lucky one

You say like too much
But I'm shaking at your touch
I like you way too much
My baby, I'm afraid I'm falling for you
And I'd do about anything to get the hell out alive
Or maybe I would rather settle down with you

Holy sweet goddamn! You left your cello in the basement
I admired the glowing the stars
And tried to play a tune
I can't believe how bad I suck, it's true
What could you possibly see in little ol' 3 chord me?
But it's true - you like me, I like you too
I'm ready, let's do it baby

You say like too much
But I'm shaking at your touch
I like you way too much
My baby, I'm afraid I'm falling for you
And I'd do about anything to get the hell out alive
Or maybe I would rather settle down with you

Тональность:

Это должно быть в ТОП-листе! - Топ-лист композиций



Назад
Рекомендуем посмотреть другие песни исполнителя «Weezer»:

  • Комменты Fb ()
  • Комменты ВК



Добавить в Избранное Браузера
Сохранить здесь Очистить


x

0


+
-

+
-

-

Авторизация





Зарегистрироваться

M

Дата и время

  • 23:41:25
     

Социальные ссылки


Наши приложения

  • Muzbank App Play Market
  • Muzbank Amazon App