MUZBANK


МУЗЫКАЛЬНО-ИНФОРМАЦИОННЫЙ БАНК





AAdams Bryan • When You Are Gone (аккорды и текст - chords & lyrics)


389

Print

Видео «When You Are Gone (Adams Bryan)»

Видео клипы к песне подбираются автоматически сайтом youtube. Возможны некоторые несоответствия клипов песне.

↑ Спрятать рекламу ↑






intro: Dm F C G

Verse 1:
Dm G C
I've been wandering around the house all night, wondering what the hell to do
Dm G C
Yeah, I'm trying to concentrate, but all I can think of is you.
Dm G C
Well, the phone don't ring 'cuz my friends ain't home,
                                                 I'm tired of being all alone.
Dm F Dm G
Got the TV on 'cuz the radio's playing songs that remind me of you...

Chorus:
Dm F C G
Baby when you're gone, I realize I'm in love,
Dm F C G
Days go on and on, and the night seem so-o-o long.
Dm F C G
Even food don't taste that good, drink ain't doing what it should,
Dm F G
Things feel so wrong, baby when you're gone.

Verse 2:
Dm G C
I've been driving up and down these streets, tryin' to find somewhere to go.
Dm G C
Yeah, I'm looking for a familiar face, but there's no one I know,
Dm G F G
Oh, this is torture, this is pain, feels like I'm gonna go insane,
Dm F G
I hope you're coming back real soon, 'cuz I don't know what to do...

Chorus-Solo-Chorus.

The solo! (with chords, that's why there are lines on the tab!)

G Dm G C Dm G C
E|-----|---------|-------|-0-0---------------|-------------|------0-0-|--------|
B|---1-|-3-1-3-1-|-3-1-3-|-----3-1-3-1-1---1-|-3-1-3-1-3-1-|-3-3-3----|-1-1-1--|
G|-2---|---------|-------|---------------2---|-------------|----------|------2-|
D|-----|---------|-------|-------------------|-------------|----------|--------|
A|-----|---------|-------|-------------------|-------------|----------|--------|
E|-----|---------|-------|-------------------|-------------|----------|--------|

Dm G C Dm F Dm
E|---------|---------|-0-0---------------|-----------|---------|---------0-----|
B|-3-1-3--1|-3-1-3-1-|-----3-1-3-1-1---1-|-3-1-3---1-|-3-3-1-3-|-3-3-1-3---1-3-|
G|-------2-|---------|---------------2---|-------2---|---------|---------------|
D|---------|---------|-------------------|-----------|---------|---------------|
A|---------|---------|-------------------|-----------|---------|---------------|
E|---------|---------|-------------------|-----------|---------|---------------|

Тональность:

Это должно быть в ТОП-листе! - Топ-лист композиций



Назад
Рекомендуем посмотреть другие песни исполнителя «Adams Bryan»:

  • Комменты Fb ()
  • Комменты ВК



Добавить в Избранное Браузера
Сохранить здесь Очистить


x

0


+
-

+
-

-

Авторизация





Зарегистрироваться

M

Дата и время

  • 09:54:26
     

Социальные ссылки


Наши приложения

  • Muzbank App Play Market
  • Muzbank Amazon App