MUZBANK


МУЗЫКАЛЬНО-ИНФОРМАЦИОННЫЙ БАНК





WWhite Stripes • Dead Leaves And The Dirty Ground (аккорды и текст - chords & lyrics)


313

Print

Видео «Dead Leaves And The Dirty Ground (White Stripes)»

Видео клипы к песне подбираются автоматически сайтом youtube. Возможны некоторые несоответствия клипов песне.

↑ Спрятать рекламу ↑






	   
Intro:
       A                      G               F#          F           A
E-------------------------------------------------------------   
B------------------------------------------------------------
G--------------------------------------------------------------
D--------------------------------------------------------------
A---------------------------------------------------------------
E-----5---5------5-0-3---3---3-0-2----2-0-1----1-0-5-----

Riff before lyrics:
       A                      G                               C                         D                   A
E---------------------------------------------------------------------------------2----------------------------
B------------3P2-------------------------------------------------------------3------------2------------------
G-------------------------------------0------------------0---------------2----------------2-----------------
D-------2------------------------0------------------2---------------0---------------------2-----------------
A----0----------------------2-------------------3-----------------------------------------0-------------------
E------------------------3-------------------------------------------------------------------------------------

Chords between verses
        A                                   G                                   C               D            A  
E--------------------------------------------------------------------------------------------------------
B--------------------------------------------------------------------------------------------------------
G-------------------------------------------------------------5----x-----7----x------------------------
D----7----x--x---7-----x--x-----5---x--x----5----x--x---5----x-----7----x-----7------------------
A----7----x--x---7-----x--x-----5---x--x----5----x--x---3----x-----5----x-----7-----------------
E----5----x--x---5-----x--x-----3---x--x----3----x--x----------------------------5-----------------


 verse


E>--------------------------------------------------------------
B>--------------------------------------------------------------
G>--------------------------------------------------------------
D>---------------------------5----3---7-------------------------
A>--7--7-------5--5--------3----5----5--------7-----------------
E>-5--5---0---3--3-----0--------------------5-------------------

Тональность:

Это должно быть в ТОП-листе! - Топ-лист композиций



Назад
Рекомендуем посмотреть другие песни исполнителя «White Stripes»:

  • Комменты Fb ()
  • Комменты ВК



Добавить в Избранное Браузера
Сохранить здесь Очистить


x

0


+
-

+
-

-

Авторизация





Зарегистрироваться

M

Дата и время

  • 03:45:24
     

Социальные ссылки


Наши приложения

  • Muzbank App Play Market
  • Muzbank Amazon App