MUZBANK


МУЗЫКАЛЬНО-ИНФОРМАЦИОННЫЙ БАНК





WWilliams John • Звездные войны - имперский марш (аккорды и текст - chords & lyrics)


19588

Print

Видео «Звездные войны - имперский марш (Williams John)»

Видео клипы к песне подбираются автоматически сайтом youtube. Возможны некоторые несоответствия клипов песне.

↑ Спрятать рекламу ↑





e--------------------------------------------------------------| 
b--------------------------------------------------------------| 
g--------------------------------------------------------------| 
d-----------------------2-2-2-3--------------------------------| 
a-0-0-0---3-0----3-0------------3------3-0---------------------| 
E-------1------1------------------4--1-------------------------|

e-------------------------------------------------------------| 
b-------------------------------------------------------------| 
g-------------------------------------------------------------| 
d-------------------------------------------------------------| 
a-12-0-0-12-11-10-9-8-9---------------------------3-0---3-0---| 
E-----------------------6--11-10-9--8-7-8--1--4-1-----1-------|

e----------------------------------------------------| 
b----------------------------------------------------| 
g----------------------------------------------------| 
d----------------------------------------------------| 
a---------------12-0-0-12-11-10-9-8------------------| 
E-1-4-8-5-8-12----------------------6-11-10-9-8-7-8--|

e-----------------------| 
b-----------------------| 
g-----------------------| 
d-----------------------| 
a-------3-0---30--------| 
E-1-4-1-----1-----------|




или

Intro:
G|---------------------------------------------------------------------------|
D|--5-5-5-5-5-5-------5-5-5-5-5-5-------5-5-5-5-5-5-------5-5-5-5-5-5--------|
A|--------------6-6-6-------------6-6-6-------------6-6-6-------------6-6-6--|
E|---------------------------------------------------------------------------|

Main Theme:
G|---------------------7-7-7-7-8-----------12-0-0-12-11-10-9-8-9-------------|
D|--5-5-5-5---8-5--8-5-----------8-----8-5-----------------------8-13-12-11--|
A|----------6----6-----------------9-6---------------------------------------|
E|---------------------------------------------------------------------------|

G|------------------------7-12-0-0-12-11-10-9-8-9----------------------------|
D|--10-9-10---5---5-8-5-8-------------------------8-13-12-11-10-9-10---5-----|
A|----------6---6----------------------------------------------------6-------|
E|---------------------------------------------------------------------------|

G|----------------|
D|----8-5---8-5---|  
A|--6-----6-------|
E|----------------|


Тональность:

Это должно быть в ТОП-листе! - Топ-лист композиций



Назад
Рекомендуем посмотреть другие песни исполнителя «Williams John»:

  • Комменты Fb ()
  • Комменты ВК



Добавить в Избранное Браузера
Сохранить здесь Очистить


x

0


+
-

+
-

-

Авторизация





Зарегистрироваться

M

Дата и время

  • 21:10:34
     

Социальные ссылки


Наши приложения

  • Muzbank App Play Market
  • Muzbank Amazon App