MUZBANK



A MOST COMPLETE BANK OF MUSIC INFORMATION

МУЗЫКАЛЬНО-ИНФОРМАЦИОННЫЙ БАНК







    ХХ.З. • Джейсон Форрис (аккорды и текст - chords & lyrics)


    398

    Print

    Видео «Джейсон Форрис (Х.З.)»

    Видео клипы к песне подбираются автоматически сайтом youtube. Возможны некоторые несоответствия клипов песне.

    ↑ Спрятать рекламу ↑





    Fill 1:
    e|-------|
    b|-------|
    g|-----5-|
    D|-7-7-5-|
    A|-7-7-3-|
    E|-5-5---|
    
    Fill 2:
    e|-------------------------------|
    b|-------------------------------|
    g|-----5-5-5-5-5-5-5-5-5-5-5-5-5-|
    D|-7-7-5-5-5-5-5-5-5-5-5-5-5-5-5-|
    A|-7-7-3-3-3-3-3-3-3-3-3-3-3-3-3-|
    E|-5-5---------------------------|
    
    Fill 1
    Мне  приснился  Джейсон Форрис.
    Крейзи  дэт  в  хоккейной  маске.
    Я  е*ал  такие  сны.
    Я  не  люблю  такие  таски.
    Fill 2
    Топором  мне  угрожая.
    Он  за  мной  всю  ночь  гонялся.
    Хорошо,  что  я  проснулся.
    А  не  то  бы   обосрался.
       (не большой проигрыш)
    
    e|---------|
    b|---------|
    g|---------|
    D|-5-5-5---|
    A|-5-5-5---|
    E|-3-3-3---|
    
    Джейсон  Форрис.(4 раза)
    e|-12--10-8----|
    b|----------10-|
    
    Solo
    
    e|------10-------11-------10----------|
    b|-13-10----13-10----13-10----13-10---|
    g|----------------------------------9-|
    D|------------------------------------|
    A|------------------------------------|
    E|------------------------------------|
    

    Тональность:

    Это должно быть в ТОП-листе! - Топ-лист композиций



    Назад
    Рекомендуем посмотреть другие песни исполнителя «Х.З.»:

    • Комменты Fb ()
    • Комменты ВК



    Добавить в Избранное Браузера
    Сохранить здесь Очистить


    x

    0


    +
    -

    +
    -

    -

    Авторизация





    Зарегистрироваться

    M

    Дата и время

    • 02:56:40
       

    Социальные ссылки


    Наши приложения

    • Muzbank App Play Market
    • Muzbank Amazon App