MUZBANK


МУЗЫКАЛЬНО-ИНФОРМАЦИОННЫЙ БАНК





AAC/DC • You Shook Me All Night Long (аккорды и текст - chords & lyrics)


699

Print

Видео «You Shook Me All Night Long (AC/DC)»

Видео клипы к песне подбираются автоматически сайтом youtube. Возможны некоторые несоответствия клипов песне.

↑ Спрятать рекламу ↑






Intro (this is the way Angus played it on the Stiff upper lip tour)

E|------------------------------------------------------------------2~-|
B|-8~--10--8-8---8-7-----7-----7-----7--------8~--10--8-8---8-7-----3~-|
G|-7~---7--7---7-----7---7-----7-----7--------7~---7--7---7-----7---2~-|
D|---------------------0-0-----0---------0------------------------0-0~-|
A|-------------------------8/9---8/9---8-------------------------------|
E|---------------------------------------------------------------------|

Verse (Repeat)

E|-3----3--3--3--3--3--2----3--3--2--3--2-|
B|-3----3--3--3--3--3--3----3--3--3--3--3-|
G|-0----0--0--0--0--0--2----0--0--2--0--2-|
D|-0---(2)(2)-0-(2)-0--0----0--0--0--0--0-|
A|(2)---3--3-(2)-3-(2)-----(2)(2)---(2)---|
E|-3----------3-----3-------3--3-----3----|

E|-3----3--3--3--3--3--2----3--3--2--3--2-|
B|-3----3--3--3--3--3--3----3--3--3--3--3-|
G|-0----0--0--0--0--0--2----0--0--2--0--2-|
D|-0---(2)(2)-0-(2)-0--0----0--0--0--0--0-|
A|(2)---3--3-(2)-3-(2)--------------------|
E|-3----------3-----3---------------------|

Chorus (Repeat)

E|----3------------------------2----------------------|
B|----3----------3------3------3----------3-------3---|
G|----0--------0------0---0----2--------0---0---0---0-|
D|----0---------------------0--0----------------------|
A|---(2)-0-2-3------2-------------0-2-3-------2-------|
E|-3--3-----------------------------------------------|

Played before the solo and at the end

E|----3------------------------2-2-2-2-2-3-3-3-3-3-2-2-2-2-2-2-2-2-2-|
B|----3----------3------3------3-3-3-3-3-3-3-3-3-3-3-3-3-3-3-3-3-3-3-|
G|----0--------0------0---0----2-2-2-2-2-0-0-0-0-0-2-2-2-2-2-2-2-2-2-|
D|----0---------------------0--0-0-0-0-0-0-0-0-0-0-0-0-0-0-0-0-0-0-0-|
A|---(2)-0-2-3------2--------------------x-x-x-x-x-------------------|
E|-3--3----------------------------------3-3-3-3-3-------------------|

Solo (The notes are close, but I'm not too sure about the timing.)

E|-----3---6------------------------------|
B|-------3---5~---------------------------|
G|-5b~----------3---------------3-----3b--|
D|----------------5~--5--3--------5-5-----|
A|------------------5------5-3~-----------|
E|----------------------------------------|

E|-------------------------------8--------------|
B|-----6-6----8-8----8-10b-8---8---10-10bp8---8-|
G|--/7-----/9------9---------9--------------9---|
D|----------------------------------------------|
A|----------------------------------------------|
E|----------------------------------------------|

E|-15~-15-------------------------------------------------------------|
B|--------15-18-----------17-15-----18-----18------------17-15-17-15⁄-|
G|--------------17~-15----17-15-17b----17b----17rb-15----17-15-17-15⁄-|
D|---------------------17-----------------------------17--------------|
A|--------------------------------------------------------------------|
E|--------------------------------------------------------------------|

E|-----18~-17~--17-15----17----15-----15-|
B|-15-----------------17----17----18b----|
G|---------------------------------------|
D|---------------------------------------|
A|---------------------------------------|
E|---------------------------------------|

E|-------------------------15------15-18-18b-15~~-|
B|-18bp15-------------17-17---17-17---------------|
G|--------17b-15-17b------------------------------|
D|------------------------------------------------|
A|------------------------------------------------|
E|------------------------------------------------|

Тональность:

Это должно быть в ТОП-листе! - Топ-лист композиций



Назад
Рекомендуем посмотреть другие песни исполнителя «AC/DC»:

  • Комменты Fb ()
  • Комменты ВК



Добавить в Избранное Браузера
Сохранить здесь Очистить


x

0


+
-

+
-

-

Авторизация





Зарегистрироваться

M

Дата и время

  • 21:52:36
     

Социальные ссылки


Наши приложения

  • Muzbank App Play Market
  • Muzbank Amazon App