MUZBANK


МУЗЫКАЛЬНО-ИНФОРМАЦИОННЫЙ БАНК





ZZappa Frank • Crusin For Burgers (аккорды и текст - chords & lyrics)


421

Print

Видео «Crusin For Burgers (Zappa Frank)»

Видео клипы к песне подбираются автоматически сайтом youtube. Возможны некоторые несоответствия клипов песне.

↑ Спрятать рекламу ↑





4/4
Gtr I
|----------------------3----------------------|
S S S S S S S S S S S S S S S S S S S S S S S S
|-------------------------------------------------|
|-------------------------------------------------|
|-------------------------------------------------|
|-------------------------------------------------|
|-5-5-5---5-5-5---5-5-5---5-5-5---5-5-5---5-5-5---|
|-------------------------------------------------|


|----------------------3----------------------|
S S S S S S S S S S S S S S S S S S S S S S S S
|-------------------------------------------------|
|-------------------------------------------------|
|-------------------------------------------------|
|-------------------------------------------------|
|-5-5-5---5-5-5---5-5-5---5-5-5---5-5-5---5-5-5---|
|-------------------------------------------------|


|----------------------3----------------------|
S S S S S S S S S S S S S S S S S S S S S S S S
|-------------------------------------------------|
|-------------------------------------------------|
|-------------------------------------------------|
|-------------------------------------------------|
|-5-5-5---5-5-5---5-5-5---5-5-5---5-5-5---5---5-5-|
|-------------------------------------------------|


|----------------------3----------------------|
S S S S S S S S S S S S S S S S S S S S S S S S
|--------------------------------------------------|
|--------------------------------------------------|
|--------------------------------------------------|
|--------------------------------------------------|
|-5---5-5-5---5-5-5---5-5-5---5-5-5---5-5-5---5-5--|
|--------------------------------------------------|


$
Gtr II
~~
H +E E. E.
|----------------------------------12----------13----------|
|-/7-----------------------(7)-----------------------------|
|----------------------------------------------------------|
|----------------------------------------------------------|
|----------------------------------------------------------|
|----------------------------------------------------------|
|
| Gtr I
| |--------------------------3--------------------------|
| S S S S S S S S S S S S S S S S S S S S S S S S
|----------------------------------------------------------|
|----------------------------------------------------------|
|----------------------------------------------------------|
|----------------------------------------------------------|
|--5---5-5-5---5-5-5---5-5--5----5--5--5---5-5-----5---5-5-|
|----------------------------------------------------------|


~~~
E. S +H.
|-----------------------------------------------------------|
|-/8----------/8---(8)--------------------------------------|
|-----------------------------------------------------------|
|-----------------------------------------------------------|
|-----------------------------------------------------------|
|-----------------------------------------------------------|
|
| |-------------------------3-------------------------|
| S S S S S S S S S S S S S S S S S S S S S S S S
|-----------------------------------------------------------|
|-----------------------------------------------------------|
|-----------------------------------------------------------|
|-----------------------------------------------------------|
|--4----4-4-4-------4--4-4---4-4-4---4-4-4---4-4-4---4-4----|
|-----------------------------------------------------------|


|-3--|
E E S S S E E E. E.
|-----------------------------------12----------13----------|
|-/7-----10-----7h10p7--------7-----------------------------|
|----------------------10-----------------------------------|
|-----------------------------------------------------------|
|-----------------------------------------------------------|
|-----------------------------------------------------------|
|
| |--------------------------3---------------------------|
| S S S S S S S S S S S S S S S S S S S S S S S S
|-----------------------------------------------------------|
|-----------------------------------------------------------|
|-----------------------------------------------------------|
|-----------------------------------------------------------|
|--5---5--5-5---5--5-5----5-5-5---5--5--5---5-5-----5---5-5-|
|-----------------------------------------------------------|


~~
W
|--------------------------------------------------|
|-/8-----------------------------------------------|
|--------------------------------------------------|
|--------------------------------------------------|
|--------------------------------------------------|
|--------------------------------------------------|
|
| |----------------------3----------------------|
| S S S S S S S S S S S S S S S S S S S S S S S S
|--------------------------------------------------|
|--------------------------------------------------|
|--------------------------------------------------|
|--------------------------------------------------|
|--4---4-4-4---4-4-4---4-4-4---4-4-4---4-4-4---4-4-|
|--------------------------------------------------|


Bb5 F5 D5
Gtr I
W W W +W
| | | |
/ / / /

~~~ ~~~~
|--3--|
H +E E. E. S S S +E +H. E +H. E W
|-/13----(13)-16--13---|-12-13-12-(12)-(12)------|-----------------|-------|
|----------------------|-------------------------|-----------------|-------|
|----------------------|-------------------------|-----------------|-------|
|----------------------|-------------------------|-12-(12)⁄--------|-------|
|----------------------|-------------------------|-12-(12)⁄--------|-------|
|----------------------|-------------------------|-----------------|-------|


D5
W +W
| |
/ /

E. S H. H H
|---------------|-------------|
|---------------|-------------|
|-7--9-10⁄------|-------------|
|---------------|-------------|
|---------------|-------x⁄----|
|---------------|-------------|


W W
|----------3----------| |-----------3-----------|
S S S S E S S E E E E E Q E S S E E E E E E E E E E
||-----------------------------|-----------------------------||
||o----------------------------|----------------------------o||
||--0h2-2-2-2-4p2p0-2----------|-----------------------------||
||--------------------0-2-4----|---------------------0-1-2---||
||o-------------------------0--|---------------0-2-3--------o||
||-----------------------------|-0-0-0-0-0-2-3---------------||


To Coda
2/4 4/4
|-------3-------| |3| |3| |3|
S S S S E S S E E E S E +H. E S E +H. E S E +H.
|-------------------|----------------|----------------|---------------|
|-------------------|----------------|----------------|---------------|
|-0h2-2-2-2-4p2p0-2-|-0-2-4-(4)------|-0-2-4-(4)------|-4-5-7-(7)-----|
|-------------------|----------------|----------------|---------------|
|-------------------|----------------|----------------|---------------|
|-------------------|----------------|----------------|---------------|


|----------3----------| |----------3----------|
Q Q E. E. E 4x E E E E E E E E E E E E E E E E E E E E E E E E
||-----------------||-||--------------------------|--------------------------||
||o-9--7--5--3----o||-||o-------------------------|-------------------------o||
||--9--7--5--3--3--||-||--------------------------|--------------------------||
||--------------4--||-||--------------------------|--------------------------||
||o---------------o||-||o-------5-----------5-----|-------5---5---5---5-----o||
||-----------------||-||--4-5-6---6-5-4-5-6---6-5-|-4-5-6---6---6---6---6-5--||


|----------3----------| |----------3----------|
E E E E E E E E E E E E E E E E E E E E E E E E
||--------------------------|--------------------------||
||o-------------------------|-------------------------o||
||--------------------------|--------------------------||
||--------4-----------4-----|-------4---4---4---4------||
||o-3-4-5---5-4-3-4-5---5-4-|-3-4-5---5---5---5---5-4-o||
||--------------------------|--------------------------||


|----------3----------| |----------3----------|
E E E E E E E E E E E E E E E E E E E E E E E E
||--------------------------|--------------------------||
||o-------------------------|-------------------------o||
||--------3-----------3-----|-------3---3---3---3------||
||--2-3-4---4-3-2-3-4---4-3-|-2-3-4---4---4---4---4-3--||
||o-------------------------|-------------------------o||
||--------------------------|--------------------------||


G#/D Bb/D
Gtr I
W W
| |
/ /

Gtr II
T T T T E +H. T T T T E +H.
||--8h10p8p6-8-(8)------|-10h11p10p8-10-(10)------|
||o---------------------|-------------------------|
||----------------------|-------------------------|
||----------------------|-------------------------|
||o---------------------|-------------------------|
||----------------------|-------------------------|


Cm G#/D Eb5D5 C5
W H E. E. E
| | | | |
/ / / / /

|-3-|
T T T T E +H T T T T +E E E E H.
|-11h14p11p10-11-(11)----11h14p11p10-(10)-|-10s8-8s10--------------||
|-----------------------------------------|-----------------------o||
|-----------------------------------------|------------------------||
|-----------------------------------------|------------------------||
|-----------------------------------------|-----------------------o||
|-----------------------------------------|------------------------||


G#/D Bb/D
W W
| |
/ /

E E T T T T E E. E. E T T T T E +H.
|-8-10-8-10-8-6-8s10--10--10-|-10-11-10-8-10-(10)------|
|----------------------------|-------------------------|
|----------------------------|-------------------------|
|----------------------------|-------------------------|
|----------------------------|-------------------------|
|----------------------------|-------------------------|


Cm G#/D Eb5 D5 C5
W H E. E. E
| | | | |
/ / / / /

E E T T T T E E. E. E E.E S E H
|-11-14-11-14-11-10-11s14--14--14-|-14s6-6-6-/10---------|
|---------------------------------|----------------------|
|---------------------------------|----------------------|
|---------------------------------|----------------------|
|---------------------------------|----------------------|
|---------------------------------|----------------------|


G#/D Bb/D
W W
| |
/ /

T T T T E +H. T T T T E +H.
|-8h10p8p6-8-(8)------|-11h14p11p10-11-(11)------|
|---------------------|--------------------------|
|---------------------|--------------------------|
|---------------------|--------------------------|
|---------------------|--------------------------|
|---------------------|--------------------------|


Cm G#/D Eb5D5 C5
W H E. E. E
| | | | |
/ / / / /

|-3-|
E E T T T T E +H E E E H.
|-11-14-14-15p14p11-14-(14)----|-14s8-8s10-------------|
|------------------------------|-----------------------|
|------------------------------|-----------------------|
|------------------------------|-----------------------|
|------------------------------|-----------------------|
|------------------------------|-----------------------|


Gtr II
W W
||------------------|--------------------||-|
||o-----------------|-------------------o||-|
||------------------|--------------------||-|
||------------------|--------------------||-|
||o-----------------|-------------------o||-|
||------------------|--------------------||-|
|
| Gtr I
| |------3------| |-------3-------|
| q q e E q q e E q q e E e Q E E E
||------------------|--------------------||-|
||o-----------------|-------------------o||-|
||------------------|--------------------||-|
||------------------|--------------------||-|
||o-5-5-5---5-5-5---|-5-5-5---5---------o||-|
||--------5-------5-|-------5---3-3-4-5--||-|


|--------3---------| |---------3----------|
Q q q q q E E q q q q q q
||----14-12---10-10-10s9s|=10-10-12---14---14---14-----||
||o----------------------|----------------------------o||
||----11--9----7--7--7s6s|==7--7--9---11---11---11-----||
||-----------------------|-----------------------------||
||o----------------------|----------------------------o||
||-----------------------|-----------------------------||
|
| |--------3---------| |----------3-----------|
| q q e E q q e E q q e E e Q E E E
||-----------------------|-----------------------------||
||o----------------------|----------------------------o||
||-----------------------|-----------------------------||
||-----------------------|-----------------------------||
||o-5--5--5----5--5--5---|--5--5--5----5--------------o||
||----------5----------5-|----------5----3----3--4-5---||


|-------3-------| |---------3---------|
Q q q q Q Q q q q q Q Q
|---15-15---15-15-----|-14-14-12---10---10-------|
|---------------------|--------------------------|
|---12-12---12-12-----|-11-11--9----7----7-------|
|---------------------|--------------------------|
|---------------------|--------------------------|
|---------------------|--------------------------|
|
| |--------3--------| |----------3----------|
| q q e E q q e E q q e E e Q E E E
|---------------------|--------------------------|
|---------------------|--------------------------|
|---------------------|--------------------------|
|---------------------|--------------------------|
|-5--5--5----5--5-5---|--5--5--5----5------------|
|---------5---------5-|----------5----3----3-4-5-|


q q q q W
|-8---8-----8---12-----|-10------------------|
|----------------------|---------------------|
|-5---5-----5----9-----|--7------------------|
|----------------------|---------------------|
|----------------------|---------------------|
|----------------------|---------------------|
|
| |--------3---------| |-------3-------|
| q q e E q q e E q q e E e Q E E E
|----------------------|---------------------|
|----------------------|---------------------|
|----------------------|---------------------|
|----------------------|---------------------|
|-5-5---5---5-5----5---|--5-5-5---5----------|
|---------5----------5-|--------5---3-3-4-5--|


1.,2.,3.
|------3------| |-------3-------|
q q e E q q e E q q e E e Q E E E 4x
||------------------|--------------------||
||o-----------------|-------------------o||
||------------------|--------------------||
||------------------|--------------------||
||o-5-5-5---5-5-5---|-5-5-5---5---------o||
||--------5-------5-|-------5---3-3-4-5--||


4. H.=H
D.S. al Coda &
|-------3-------| |3-|
q q e E e Q E E E W E S E +H. +W
|-------------------|----------|------------------|---------|
|-------------------|----------|------------------|---------|
|-------------------|-7--------|-7-9-11-(11)------|-(11)----|
|-------------------|----------|------------------|---------|
|-5-5-5---5---------|----------|------------------|---------|
|-------5---3-3-4-5-|----------|------------------|---------|


Q=100
F#5G#5 E
2/4 4/4
Gtr I
Q Q W W
| | |
/ / /

Q Q H H 8x W
|-------||-----------------||------*|
|-7--9--||o-11----(11)----o||------*|
|-6--8--||---9-----(9)-----||------*|
|-4--6--||---8-----(8)-----||------*|
|-------||o---------------o||------*|
|-------||----------0------||------*|

Тональность:

Это должно быть в ТОП-листе! - Топ-лист композиций



Назад
Рекомендуем посмотреть другие песни исполнителя «Zappa Frank»:

  • Комменты Fb ()
  • Комменты ВК



Добавить в Избранное Браузера
Сохранить здесь Очистить


x

0


+
-

+
-

-

Авторизация





Зарегистрироваться

M

Дата и время

  • 15:05:30
     

Социальные ссылки


Наши приложения

  • Muzbank App Play Market
  • Muzbank Amazon App