MUZBANK


МУЗЫКАЛЬНО-ИНФОРМАЦИОННЫЙ БАНК





ZZappa Frank • Filthy Habits (аккорды и текст - chords & lyrics)


616

Print

Видео «Filthy Habits (Zappa Frank)»

Видео клипы к песне подбираются автоматически сайтом youtube. Возможны некоторые несоответствия клипов песне.

↑ Спрятать рекламу ↑





A section (basic riff) (not 10th time)
(x10) V *
||---------------------------------------------------------------------||
5||.-----------------------------------------------------3-----------3-.||4
4||.---------------------------4-------------3-------------------------.||4
||---1----------2------------------------------------------------------||
||---------------------------------------------------------------------||

B section (fiddly bit)
v----3----v v----3----v v----3----v v-----5------v *
|------------------------------------------------------------------|
4|------------------------------------------------------------------|3
4|--8--8-10-8-6----8--8-10-8-6----8--8-10-8-6----8--6--8--10--6-----|4
|------------------------------------------------------------------|
|------------------------------------------------------------------|

v------5------v v-----5-----v v-----5-----v *
|-----------------------------------------------------| |---------------|
3|--10--8--8--8--10----6--6--8--6--5----5--5--6--5-----| 4|---------------|
4|--------------------------------------------------7--| 4|-8-------------|
|-----------------------------------------------------| |---------1---3-|
|-----------------------------------------------------| |---------------|

* (x4)
|----------------------| ||-------------------------------------------||
4|----------------------| 5||.-----------------------------------------.||
4|----------------------| 4||.-----------------------------------------.||
|---4-----------6------| ||-------------------------------------------||
|----------------------| ||---2-------2---2--------2----2---/-8-⁄-----||
s s

C section (guitar solo)
(x ?)
||----------------------------------------------------------------------||
5||.--------------------------------------------------------------------.||
4||.-----------------------------------------------------3------------3-.||
||---------------------------4-------------3----------------------------||
|------------------------------------------------------------------------|
||----1----------2------------------------------------------------------||

D section (fiddly bit again)
v----3----v v----3----v v----3----v v-----5------v *
|------------------------------------------------------------------|
4|------------------------------------------------------------------|3
4|--8--8-10-8-6----8--8-10-8-6----8--8-10-8-6----8--6--8--10--6-----|4
|------------------------------------------------------------------|
|------------------------------------------------------------------|

v------5------v v-----5-----v v-----5-----v *
|-----------------------------------------------------| |---------------|
3|--10--8--8--8--10----6--6--8--6--5----5--5--6--5-----| 4|---------------|
4|--------------------------------------------------7--| 4|-8-------------|
|-----------------------------------------------------| |---------1---3-|
|-----------------------------------------------------| |---------------|


v----3----v v----3----v v----3----v v-----5------v *
|----------|------------------------------------------------------------|
4|----------|------------------------------------------------------------|3
4|----------|--8--8-10-8-6---8--8-10-8-6---8--8-10-8-6---8--6--8--10--6--|4
|-4---6----|------------------------------------------------------------|
|----------|------------------------------------------------------------|

v------5------v v-----5-----v v-----5-----v *
|-----------------------------------------------------| |---------------|
3|--10--8--8--8--10----6--6--8--6--5----5--5--6--5-----| 4|---------------|
4|--------------------------------------------------7--| 4|-8-------------|
|-----------------------------------------------------| |---------2---4-|
|-----------------------------------------------------| |---------------|

|---------------------|--------------||
4|---------------------|--------------||
4|--------------3------|--(3)---------||
|----6----------------|--------------||
|---------------------|--------------||

Alternate fingering for 4 strings

B section (bar 5) C section (guitar solo vamp)
(x4)
||---------------------------|| ||------------------------5------5-||
5||.-------------------------.|| 5||.-----------4-----3-------------.||
4||.-4----4-4-----4-4--/10⁄--.|| 4||.-3----4------------------------.||
||---------------------------|| ||---------------------------------||

Тональность:

Это должно быть в ТОП-листе! - Топ-лист композиций



Назад
Рекомендуем посмотреть другие песни исполнителя «Zappa Frank»:

  • Комменты Fb ()
  • Комменты ВК



Добавить в Избранное Браузера
Сохранить здесь Очистить


x

0


+
-

+
-

-

Авторизация





Зарегистрироваться

M

Дата и время

  • 18:45:33
     

Социальные ссылки


Наши приложения

  • Muzbank App Play Market
  • Muzbank Amazon App