MUZBANK


МУЗЫКАЛЬНО-ИНФОРМАЦИОННЫЙ БАНК





ZZappa Frank • Titties And Beer (аккорды и текст - chords & lyrics)


534

Print

Видео «Titties And Beer (Zappa Frank)»

Видео клипы к песне подбираются автоматически сайтом youtube. Возможны некоторые несоответствия клипов песне.

↑ Спрятать рекламу ↑





RIFF 1: main funk-type RIFF

G -------------8-9-|-----------------
D -----------------|-----------------
A -----9-----------|---12------------
E -----------------|-----------12----


RIFF 2: mostly while Devil's talking

G -----------------|-----------------
D ---9-9-9---------|-----------------
A ---------12-12-12|------------9-9-9
E -----------------|--12-12-12-------


RIFF 3: bridge between RIFF 2 and 1

G -----------------|-----------------
A -----------------|-----------------
D ---------9----9--|-----------------
E ------12---12----|-----------------


RIFF 1 x 6 it was the blackest night
RIFF 2 x 6 I'm mean and I'm bad
RIFF 3 x 1 of mystery, mystery
RIFF 1 x 6 I noticed even the crickets
RIFF 2 X 4 where's those titties
RIFF 1 X 6 he had a red suit on

Тональность:

Это должно быть в ТОП-листе! - Топ-лист композиций



Назад
Рекомендуем посмотреть другие песни исполнителя «Zappa Frank»:

  • Комменты Fb ()
  • Комменты ВК



Добавить в Избранное Браузера
Сохранить здесь Очистить


x

0


+
-

+
-

-

Авторизация





Зарегистрироваться

M

Дата и время

  • 04:48:45
     

Социальные ссылки


Наши приложения

  • Muzbank App Play Market
  • Muzbank Amazon App