MUZBANK


МУЗЫКАЛЬНО-ИНФОРМАЦИОННЫЙ БАНК





ZZappa Frank • Valley Girl (аккорды и текст - chords & lyrics)


411

Print

Видео «Valley Girl (Zappa Frank)»

Видео клипы к песне подбираются автоматически сайтом youtube. Возможны некоторые несоответствия клипов песне.

↑ Спрятать рекламу ↑





G|------------------------|-------------------|--------------------
D|4--------------------7--|-------------------|-----------------7--
A|4-----------------------|-----5/7-------7---|--------------------
E|---14⁄⁄⁄⁄⁄⁄3-----5-5----|---3-------0-0-----|-----8⁄⁄⁄3-----5-5--

|------------------|
|------------------|
|-----5/7-------7--|
|---3-------0-0----|


G|------------------|---------------------|------------------
D|------3-----------|---------------------|------3-----------
A|-----------3-3-3--|-----------------3⁄⁄-|-----------3-3-3--
E|--1-1-------------|-3-3-3----6----6-----|--1-1-------------

|---------------------|------------------|---------------------|
|-------------------3-|------3-----------|---------------------|
|-----------------5---|-----------3-3-3--|-----------------3⁄⁄-|
|-3-3-3----6----6-----|--1-1-------------|-3-3-3----6----6-----|

"Like, oh my god....."
G|-----------------------------|-----------------------------|
D|-----------------------------|-----------------------------| Repeat
A|-----------------------------|-----------------------------| (4X)
E|--0-0---6⁄⁄⁄---0-0---6⁄⁄⁄----|--0-0---6⁄⁄⁄---0-0---8⁄⁄⁄----|

"I like, all those great shoe stores..."
G|-----------------|--------------------|-----------------
D|-----7-7-----7⁄--|--------5-----------|-----------------
A|-----------------|------------5---3---|-^9^---9---7---3-
E|--5-5-----5-5----|---3-3--------------|-----------------

|--------------------|
|--------5-----------| Repeat
|------------5---3---| (2X)
|---3-3--------------|

"Like..."
G|----------------|------------------|-------------------
D|------3------3--|------3---3-2-0---|-------//7--5------
A|----------------|----------------3-|-0-0---------------
E|-1-1------1-----|--1-1-------------|---------------0-0-

|------------------|
|-----3------------|
|------------------|
|-1-1------1--1-1--|

G|----------------|------------------|-------------------
D|------3------3--|------3---3-2-0---|-------//7--5------
A|----------------|----------------3-|-0-0---------------
E|-1-1------1-----|--1-1-------------|---------------0-0-

|------------------|
|-----3---------3--|
|------------------|
|-1-1------1--1----|

"anyway, he said..."
G|------------------| |------------------|-----------|---------------|
D|------------------|Repeat|-----7-7---5++++--|-----------|---------------|
A|-----7-7------7-7-| (3X) |------------------|-----------|---------------|
E|-0-0------0-0-----| |-5-5-------3++++--|-----------|-/////8⁄⁄⁄⁄⁄3--|

"he's like, Freakin' me out....
G|-------------------|--------------------|
D|----10-------7-----|-----5--------------| Repeat
A|-------------------|-------5/7-------7--| (4X)
E|---8------3/5---5--|---3-----------0----|

G|-----------------|---------------------|
D|--3-3-3----------|---------------------| Repeat
A|----------3-3-3--|----------1---1-3-1--| (3X)
E|-----------------|-3-3-3---------------|

"..really sad..."
G|-----------------------------|-----------------------------|
D|-----------------------------|-----------------------------| Repeat
A|-----------------------------|-----------------------------| (4X)
E|--0-0---6⁄⁄⁄---0-0---6⁄⁄⁄----|--0-0---6⁄⁄⁄---0-0---8⁄⁄⁄----|

"I'am so sure...."
G|-----------------|--------------------|-----------------
D|-----7-7-----7⁄--|--------5-----------|-----------------
A|-----------------|------------5---3---|-^9^---9---7---3-
E|--5-5-----5-5----|---3-3--------------|-----------------

|--------------------|
|--------5-----------| Repeat
|------------5---3---| (2X)
|---3-3--------------|

"last idea to cross..."
G|---------------|-----------------|-------------------|------------------|
D|------3------3-|-----3---3-2-0---|-------//7--5------|-----3------------|
A|---------------|---------------3-|-0-0---------------|------------------|
E|-1-1------1----|-1-1-------------|---------------0-0-|-1-1------1--1-1--|

G|---------------|-----------------|-------------------|------------------|
D|------3------3-|-----3---3-2-0---|-------//7--5------|-----3---------3--|
A|---------------|---------------3-|-0-0---------------|------------------|
E|-1-1------1----|-1-1-------------|---------------0-0-|-1-1------1--1----|

"So i go into, like this..."
G|------------------| |------------------|-------|-------------------|
D|------------------|Repeat|-----7-7----------|-------|--12-10------------|
A|------------------| (3X) |------------------|-------|--------12---------|
E|-0-0-0-0-0-0-0-0--| |-5-5-------3++++--|-------|-----------10⁄⁄⁄⁄--|

"i'll like bag those toe nail's..."
G|-------------------|-------------------|
D|-----10-------7----|-----5-------------| Repeat
A|-------------------|-------5/7------7--| (4X)
E|---8------3/5---5--|---3----------0----|

G|-----------------|---------------------|
D|--3-3-3----------|---------------------| Repeat
A|----------3-3-3--|----------1---1-3-1--| (4X)
E|-----------------|-3-3-3---------------|

"like my mother's..."
G|-----------------------------|-----------------------------|
D|-----------------------------|-----------------------------| Repeat
A|-----------------------------|-----------------------------|(17X till fade)
E|--0-0---6⁄⁄⁄---0-0---6⁄⁄⁄----|--0-0---6⁄⁄⁄---0-8⁄⁄⁄--------|

Тональность:

Это должно быть в ТОП-листе! - Топ-лист композиций



Назад
Рекомендуем посмотреть другие песни исполнителя «Zappa Frank»:

  • Комменты Fb ()
  • Комменты ВК



Добавить в Избранное Браузера
Сохранить здесь Очистить


x

0


+
-

+
-

-

Авторизация





Зарегистрироваться

M

Дата и время

  • 11:11:08
     

Социальные ссылки


Наши приложения

  • Muzbank App Play Market
  • Muzbank Amazon App