MUZBANK


МУЗЫКАЛЬНО-ИНФОРМАЦИОННЫЙ БАНК





ЗЗемфира • Хочешь? (аккорды и текст - chords & lyrics)


1999

Print

Видео «Хочешь? (Земфира)»

Видео клипы к песне подбираются автоматически сайтом youtube. Возможны некоторые несоответствия клипов песне.

↑ Спрятать рекламу ↑






Версия 1:
  [distorted, используется palm muting]
     F                  G                A
D---------------------------------------------------------------
A--------3----------------5-----------------7-------------7-----
E-1----------------3--3-------------5-----5-------5-5---5-------
     Пожалуйста,     не  умирай,       или мне придется   тоже.

D---------------------------------------------------------------
A--------3----------------5-----------------7-------7-----7р5---
E-1----------------3--3-------------5-----5-------5-----5-----7-
     Ты, конечно,   сразу в рай,     а я не думаю,    что тоже.

Припев:
     D                              A#
D--------7р5-----------7р5--------------3р1-----------3р1----
A-5----5---------5---5------7⁄-1------1---------1---1-----3--
E------------------------------------------------------------
   Хочешь сладких   апельсинов?  хочешь вслух рассказов длинных?

     G                              F             C
D-------------------------------------------------------2-3-5-
A----------5р3----------5р3---------------3---3-3-3-2-3-------
E-3------3--------3---3-----5---1-1-1-1-3---------------------
    Хочешь, я взорву  все звезды,  что мешают спать?

Riff1:

G---------------------------------------------
D--3---2-3--5--3--2--3---3---2-3--5--3--2--3--

G---------------------------------------3--2--
D--3---2-3--5--3--2--3---3---2-3--5--2--------

Версия 2:
 F              G                  A
  Пожалуйста, только живи, ты же видишь - я живу тобою,
  Моей огромной любви хватит нам двоим с головою.

Припев:
   D                       A#
  Хочешь море с парусами? хочешь музык новых самых?
   G                     F                  C
  Хочешь, я убью соседей, что мешают спать?

[Riff1]

Solo [c Максидрома]:

 e------------------------------------------------
 B---------------------------------------------5--
 G--/7---7---7-7⁄5---5---5-5⁄3---3-3⁄2-0Н2-5------

 e-------------------------------------------------------
 B--5-5/6---6---6-6/8---8---8-8/10---10-/13---13--13-13--

 e------------------------------------------
 B--/13----13⁄6----8---6-5Н6-8-----13^--13--
 G--/12----12⁄5----------------5------------

e------------------------------------------/9-9---9/12---12/15-
B----------13--------------------------------------------------
G-10-10Н12----12-10--------------------------------------------
D-------------------12-/12-10----------------------------------
A-----------------------------12-10-8-10-8---------------------


  Хочешь солнце вместо лампы? хочешь за окошком Альпы?
  Хочешь, я отдам все песни, про тебя отдам все песни!

[Riff1]

  Хочешь солнце вместо лампы? хочешь за окошком Альпы?
  Хочешь, я отдам все песни, про тебя отдам все песни я...

[Riff1] x 3

Тональность:

Это должно быть в ТОП-листе! - Топ-лист композиций



Назад
Рекомендуем посмотреть другие песни исполнителя «Земфира»:

  • Комменты Fb ()
  • Комменты ВК



Добавить в Избранное Браузера
Сохранить здесь Очистить


x

0


+
-

+
-

-

Авторизация





Зарегистрироваться

M

Дата и время

  • 14:34:56
     

Социальные ссылки


Наши приложения

  • Muzbank App Play Market
  • Muzbank Amazon App